PrimaNota.ru - самый крупный в мире бесплатный архив песенных текстов, аккордов, табулатур и нот


Peste Noire - Le Dernier Putsch - таба, видео

Регистрация Запомнить меня
Войти через:  Facebook Google Twitter Vk Yandex Mail.ru

Peste Noire - Le Dernier Putsch - таба, видео

Печатать
Просмотров: 147
-------------------------------------------------------------------------------
                  LE DERNIER PUTSCH - Peste Noire
-------------------------------------------------------------------------------
Tabbed by: Vazelyne
E-mail: babaoroumqsd@gmail.com

Tuning: EADGBe, Standard

Riff 1 (tremolo picking)

e|-6-14-11-6-----6-14-11-6-6-6-14-11-6---------6-16-14-13-6-|
B|-----------6-2-----------6-----------6-2-1--------------6-|
G|-------------------------------------------1--------------|
D|----------------------------------------------------------|
A|----------------------------------------------------------|
E|----------------------------------------------------------|

e|-6-14-11-6-----6-14-11-6-6-6-14-11-6---------6-16-14-13-6---|
B|-----------6-2-----------6-----------6-2-1--------------6b7-|
G|-------------------------------------------1----------------|
D|------------------------------------------------------------|
A|------------------------------------------------------------|
E|------------------------------------------------------------|

Riff 2 (tremolo picking, except the last chord)

e|---------------------------------------------------------------------|
B|-------8\10---8\10\11---8\11\10\8-----------8\10---8\10\11---8\11-10-|
G|-0-6\7------7---------7-----------8\5-0-6\7------7---------7------8--|
D|---------------------------------------------------------------------|
A|---------------------------------------------------------------------|
E|---------------------------------------------------------------------|

e|---------------------------------------------------------------------|
B|-------8\10---8\10\11---8\11\10\8-----------8\10---8\10\11---8\11-10-|
G|-0-6\7------7---------7-----------8\5-0-6\7------7---------7------8--|
D|------------------------------------------------------------------0--|
A|------------------------------------------------------------------0--|
E|------------------------------------------------------------------0--|

Riff 3 (tremolo picking until the *)

e|---------------------------------------------------------------------|
B|-------8\10---8\10\11---8\11\10\8-----------8\10---8\10\11---8\11\10-|
G|-0-6\7------7---------7-----------8\5-0-6\7------7---------7------8--|
D|---------------------------------------------------------------------|
A|---------------------------------------------------------------------|
E|---------------------------------------------------------------------|

e|------------------------------------------------------------------------------|
B|-------8\10---8\10\11---8\11\10\8-----------8-10---8-10-10\11-10\11-10\11-11\-|
G|-0-6\7------7---------7-----------8\5-0-6\7------7------------------------8-\-|
D|------------------------------------------------------------------------------|
A|------------------------------------------------------------------------------|
E|------------------------------------------------------------------------------|
                              *

Riff 4 (no tremolo picking here)

e|------------------------------------------------------------------------------|
B|-------8-10---8-10\11---8\11\10\8-----------8-10---8-10\11---8\11-10-10-10-10-|
G|-0-6\7------7---------7-----------8\5-0-6\7------7---------7------8--8--8--8--|
D|------------------------------------------------------------------------------|
A|------------------------------------------------------------------------------|
E|------------------------------------------------------------------------------|
                                                                    x  x  x  x
e|--------------------------------------------------|
B|-------8-10---8-10\11---8\11\10\8-----------------|
G|-0-6\7------7---------7-----------8\5-7-6-5-4-3-2-|
D|--------------------------------------5-4-3-2-1-0-|
A|--------------------------------------------------|
E|--------------------------------------------------|

Riff 5

e|--------------------------------------------------------------------------|
B|-----8-10---8-10-11---8-11-10-8---------8-10---8-10-11---8-11-10-10-10-10-|
G|---7------7---------7-----------8-5---7------7---------7------8--8--8--8--|
D|-5----------------------------------5-------------------------------------|
A|--------------------------------------------------------------------------|
E|--------------------------------------------------------------------------|

e|-----------------------------------------------------------------|
B|-----8-10---8-10-11---8-11-10-8---------8-10---8-10-11-10\11-11\-|
G|---7------7---------7-----------8-5---7------7---------------8-\-|
D|-5----------------------------------5----------------------------|
A|-----------------------------------------------------------------|
E|-----------------------------------------------------------------|

(Riff 2)x2

Riff 6 (strum as played on the track)

e|---3---3---3---3---------------5---5-|
B|---3---3---4---4---------------5---5-|
G|-3-3-3-3-5-5-5-5-8-8-8-8-5-5-7-7-7-7-|
D|-5-5-5-5-5-5-5-5-8-8-8-8-5-5-7-7-7-7-|
A|-5-5-5-5-3-3-3-3-6-6-6-6-3-3-5-5-5-5-|
E|-3-3-3-3-----------------------------|

Whistling

e|--------------------------------------------|
B|--------------------------------------------|
G|-7-7-8-5-5-0-5-7-8-5-3-0-3-12-10-8-7-10-8-7-|
D|--------------------------------------------|
A|--------------------------------------------|
E|--------------------------------------------|

Solo

e|-------------------------------------------1-1-3-3-11-10-------11-10-------------|
B|-12----13-11-10-11p10----------------------1-1-3-3-------10-11-------11-10-------|
G|-12b13----------------10h12-12\8\7\8-7-5\2---------------------------------11\12-|
D|---------------------------------------------------------------------------------|
A|---------------------------------------------------------------------------------|
E|---------------------------------------------------------------------------------|

Riff 7 (strum the chords aggressively and tremolo pick the single notes on the G and B strings)

e|------------------------------------------------------------|
B|----------------------------------------------7-8-------7---|
G|---12-8------12-8-----------------12-8------9-----8-8\9---8-|
D|-2-12-8-9--2-12-8---------------2-12-8-9-10-----------------|
A|-2-10-6-9--2-10-6---6---6-9-6---2-10-6-9-10-----------------|
E|-0------7--0------7---9-------7-0------7-8------------------|

(Riff 7)x1

Riff 8 (see Riff 7)

e|----------------------------------------------------------------------|
B|----------------------------------------------7-8-------7-------------|
G|---12-8------12-8-----------------12-8------9-----8-8\9---8-----------|
D|-2-12-8-9--2-12-8---------------2-12-8-9-10-----------------2-2-2-2-2-|
A|-2-10-6-9--2-10-6---6---6-9-6---2-10-6-9-10-----------------2-2-2-2-2-|
E|-0------7--0------7---9-------7-0------7-8------------------0-0-0-0-0-|

(Riff 4)x2

(Riff 2)x2
************************************

| /   slide up
| \   slide down
| h   hammer-on
| p   pull-off
| ~   vibrato
| +   harmonic
| x   Mute note
| b   Bend
| pb  Pre-bend
| br  Bend release
| pbr Pre-bend release
| brb Bend release bend

************************************
Добавлено: 26.12.2015
Вам также может быть интересно:
Другие материалы по этой песне:
  • Аккорды и текст

Страница создана 26.12.2015
http://primanota.ru/peste-noire/le-dernier-putsch-chords.htm
Привет, Гость.
Предлагаем пройти революционный курс по гитаре.
Подарок от PrimaNota.Ru, забирай!