PrimaNota.ru - самый крупный в мире бесплатный архив песенных текстов, аккордов, табулатур и нот


Parkway Drive - Old Ghost New Regrets - таба, видео

Регистрация Запомнить меня
Войти через:  Facebook Google Twitter Vk Yandex Mail.ru

Parkway Drive - Old Ghost New Regrets - таба, видео

Печатать
Просмотров: 74
PARKWAY DRIVE

OLD GHOST NEW REGRETS

A#-F-A#-D#-G-C




TABBED BY-andherembrace




L
----------------------------------------------------------------------|
----------------------------------------------------------------------|
--------------------------------------------------------------/\------|
--/\--------------/\--------------/\--------------------/\--121312----|
121312----------121312----------121312------------/\--121315----------|
------15-0|-0-0-------15-0|-0-0-------15-0|-0-0-121315------------17--|
R
---------------------------------------------------------------|
---------------------------------------------------------------|
---------------------------------------------------------------|
---------------------------------------------------------------|
-0--------------------------------------------------\----------|
-0------------------------------------------------PS\----------|


--------------------------------------------------------------------------|
--------------------------------------------------------------------------|
--------------------------------------------------------------------------|
--/\--------------/\--------------/\--------------------------------------|
121312----------121312----------121312------------------------------------|
------15-0|-0-0-------15-0|-0-0-------15-0|-0-0-13-13-13-13-13-13-13-13-13|

---------------------------------------------------------------------------|
---------------------------------------------------------------------------|
---------------------------------------------------------------------------|
---------------------------------------------------------------------------|
-0----------------0--------------0-----------------------------------------|
-0---|------------0---|----------0---|----------13-13-13-13-13-13-13-13-13-|




B
----------------------------------------------------------------------|
----------------------------------------------------------------------|
--------------------------------------------------------------/\------|
--/\--------------/\--------------/\--------------------/\--121312----|
121312----------121312----------121312------------/\--121315----------|
------15-0|-0-0-------15-0|-0-0-------15-0|-0-0-121315------------17--|

---------------------------------------------------------------------|
---------------------------------------------------------------------|
---------------------------------------------------------------------|
--/\---------------/\-------------/\---------------------------------|
121312----------121312----------121312-------------------------------|
------15-0|-0-0-------15-0|-0-0-------15-0|-0-0-13-13-13-13-13-13-13-|


---------------------------------------------------------------------|
---------------------------------------------------------------------|
--------------------------------------------------------------/\-----|
--/\--------------/\--------------/\--------------------/\--121312---|
121312----------121312----------121312------------/\--121315---------|
------15-0|-0-0-------15-0|-0-0-------15-0|-0-0-121315------------17-|

-------------------------------------------------|
-------------------------------------------------|
-------------------------------------------------|
--/\--------------/\--------------/\-------------|
121312----------121312----------121312-----------|
------15-0|-0-0-------15-0|-0-0-------15-0|-0-0--|

--------------------------------------------------|
--------------------------------------------------|
--------------------------------------------------|
--------------------------------------------------|
--------------------------------------------------|
-13-13-13~--13-13-13~--13-13-13~--13-13-13~--12~--|






--------------------------------------------------------------|
--------------------------------------------------------------|
------------------------------------------------/\------------|
-----------------------------------------/\---121312----------|
-0---------------------------------/\--121315-----------------|
-0-------0---0-0------0-0-0-0----121315--------------17--13~--|
         *   *        * * *   
---------------------------------------------------------------|
---------------------------------------------------------------|
---------------------------------------------------------------|
---------------------------------------------------------------|
-0-------------------------------------------------------------|
-0-------0---0-0------0-0-0-0----13-13-13-13-13-13-13-13-12-12~|
         *   *        * * * 

--------------------------------------------------------------|
--------------------------------------------------------------|
------------------------------------------------/\------------|
-----------------------------------------/\---121312----------|
-0---------------------------------/\--121315-----------------|
-0-------0---0-0------0-0-0-0----121315--------------17--13~--|
         *   *        * * *  

---------------------------------------------------------------|
---------------------------------------------------------------|
---------------------------------------------------------------|
---------------------------------------------------------------|
-0-------------------------------------------------------------|
-0-------0---0-0------0-0-0-0----13-13-13-13-13-13-13-13-13~~~~|
         *   *        * * *  

----------------------------|
----------------------------|
----2steps------------------|
----_______________---------|
---)--------------(---------|
-13-------------------------|




------------------------------------------|
------------------------------------------|
------------------------------------------|
------------------------------------------|
-0000000---0--00-00--000000--00-0-00-00---|
-0000000---0--00-00--000000--00-0-00-00---|
 *******   *  ** **  ******  ** * ** **
------------------------------------------|
------------------------------------------|
------------------------------------------|
------------------------------------------|
-0000000---0--00-00--000000--00-0-00-00---|
-0000000---0--00-00--000000--00-0-00-00---|
 *******   *  ** **  ******  ** * ** **

------------------------------------------|
------------------------------------------|
------------------------------------------|
------------------------------------------|
-0000000---0--00-00--000000--00-0-00-00---|
-0000000---0--00-00--000000--00-0-00-00---|
 *******   *  ** **  ******  ** * ** **
------------------------------------------|
------------------------------------------|
------------------------------------------|
------------------------------------------|
-0000000---0--00-00--000000--00-0-00-00---|
-0000000---0--00-00--000000--00-0-00-00---|
 *******   *  ** **  ******  ** * ** **



----------------------------------------------------------------|
----------------------------------------------------------------|
----------------------------------------------------------------|
--/\--------------/\--------------/\----------------------------|
121312----------121312----------121312--------------------------|
------15-0|-0-0-------15-0|-0-0-------15-0|-0-0-13-13-13-13-13--|




B
----------------------------------------------------------------------|
----------------------------------------------------------------------|
--------------------------------------------------------------/\------|
--/\--------------/\--------------/\--------------------/\--121312----|
121312----------121312----------121312------------/\--121315----------|
------15-0|-0-0-------15-0|-0-0-------15-0|-0-0-121315------------17--|

---------------------------------------------------------------------|
---------------------------------------------------------------------|
---------------------------------------------------------------------|
--/\---------------/\-------------/\---------------------------------|
121312----------121312----------121312-------------------------------|
------15-0|-0-0-------15-0|-0-0-------15-0|-0-0-13-13-13-13-13-13-13-|


---------------------------------------------------------------------|
---------------------------------------------------------------------|
--------------------------------------------------------------/\-----|
--/\--------------/\--------------/\--------------------/\--121312---|
121312----------121312----------121312------------/\--121315---------|
------15-0|-0-0-------15-0|-0-0-------15-0|-0-0-121315------------17-|

-------------------------------------------------|
-------------------------------------------------|
-------------------------------------------------|
--/\--------------/\--------------/\-------------|
121312----------121312----------121312-----------|
------15-0|-0-0-------15-0|-0-0-------15-0|-0-0--|

------------------------------------------------------------|
------------------------------------------------------------|
------------------------------------------------------------|
------------------------------------------------------------|
----------------------------------------8--5--10--7---------|
13-13-13~-13-13-13~-13-13-13~-13-13-13~-8--5--10--7-12~12~--|




---------------------------------------------------------------|
---------------------------------------------------------------|
---------------------------------------------------------------|
---------------------------------------------------------------|
-0-------------------------------------------------------------|
-0-------------------------------------------------------------|





L
----------------------------------------------------|
----------------------------------------------------|
----------------------------------------------------|
----------------------------------------------------|
----------------------------------------------------|
-12~~~-0--12~~~-0----0--0-0--0-0--0-0-0-0--0--0-0---|
R                    *  * *  * *  * * * *  *  * *
----------------------------------------------------|
----------------------------------------------------|
----------------------------------------------------|
----------------------------------------------------|
----------------------------------------------------|
----------12~~~-0-----------------------------------|

L
-----------------------------------------------|
-----------------------------------------------|
-----------------------------------------------|
-----------------------------------------------|
-----------------------------------------------|
-12~~~-0--12~~~-0------0--0-0--0-0--0-0-0-0--0-|
R                      *  * *  * *  * * * *  *
--------------------------------------------|
--------------------------------------------|
--------------------------------------------|
--------------------------------------------|
--------------------------------------------|
---------12~~~--0---------------------------|


L
----------------------------------------------------|
----------------------------------------------------|
----------------------------------------------------|
----------------------------------------------------|
----------------------------------------------------|
-12~~~-0-------------0--0-0--0-0--0-0-0-0--0--0-0---|
R                    *  * *  * *  * * * *  *  * *
----------------------------------------------------|
----------------------------------------------------|
----------------------------------------------------|
----------------------------------------------------|
----------------------------------------------------|
-12~~~-0--12~~~-0-----------------------------------|



L
---------------------------------------------|
---------------------------------------------|
---------------------------------------------|
---------------------------------------------|
------------------------8--5--10--7----------|
-12~~~--0---------------8--5--10--7----------|
R                    
---------------------------------------------|
---------------------------------------------|
---------------------------------------------|
---------------------------------------------|
-----------------------8--5--10--7-----------|
-12~~~--0--12~~~--0----8--5--10--7-----------|


B
--------------------------------------------------------|
--------------------------------------------------------|
--------------------------------------------------------|
--------------------------------------------------------|
--------------------------------------------------------|
-12~~~--0--12~~~--0------0--0-0--0-0--0-0-0-0--0--0-0---|
                         *  * *  * *  * * * *  *  * *

---------------------------------------------|
---------------------------------------------|
--------------------------R ONLY-------------|
---------------------------------------------|
----------------------------------8--5--10---|
-12~~~--0--12~~~--0------000-0-0--8--5--10---|
                         *** * *  


------------------------------------------|
------------------------------------------|
------------------------------------------|
------------------------------------------|
-0000000---0--00-00--000000--00-0-00-00---|
-0000000---0--00-00--000000--00-0-00-00---|
 *******   *  ** **  ******  ** * ** **
------------------------------------------|
------------------------------------------|
------------------------------------------|
------------------------------------------|
-0000000---0--00-00--000000--00-0-00-00---|
-0000000---0--00-00--000000--00-0-00-00---|
 *******   *  ** **  ******  ** * ** **

------------------------------------------|
------------------------------------------|
------------------------------------------|
------------------------------------------|
-0000000---0--00-00--000000--00-0-00-00---|
-0000000---0--00-00--000000--00-0-00-00---|
 *******   *  ** **  ******  ** * ** **
----------------------------------|
----------------------------------|
----------------------------------|
----------------------------------|
-0000000---0--00-00--8--5--10--7--|
-0000000---0--00-00--8--5--10--7--|
 *******   *  ** **  


slow
------------------------------------------------|
------------------------------------------------|
------------------------------------------------|
------------------------------------------------|
-0-0-0-0-0---0--00-00---0-0-0-0-0--00-0-00-00---|
-0-0-0-0-0---0--00-00---0-0-0-0-0--00-0-00-00---|
 * * * * *   *  ** **   * * * * *  ** * ** **


L
------------------------------------------------------------|
------------------------------------------------------------|
------------------------------------------------------------|
------------------------------------------------------------|
-0-0-0-0-0---0--00-00-------------------------------------0-|
-0-0-0-0-0---0--00-00--8~--5~--10~--7~--12-12-12-12-12-12-0-|
 * * * * *   *  ** **   
R
------------------------------------------------------------|
------------------------------------------------------------|
------------------------------------------------------------|
------------------------------------------------------------|
-0-0-0-0-0---0--00-00-------------------------------------0-|
-0-0-0-0-0---0--00-00--12~-8~--14~--10--15-15-15-14-14-14-0-|
 * * * * *   *  ** **   

Добавлено: 17.08.2013
Другие материалы по этой песне:

Страница создана 10.08.2013
http://primanota.ru/parkway-drive/old-ghost-new-regrets-chords.htm
Привет, Гость.
Предлагаем пройти революционный курс по гитаре.
Подарок от PrimaNota.Ru, забирай!