PrimaNota.ru - самый крупный в мире бесплатный архив песенных текстов, аккордов, табулатур и нот


Panda - Amantes Sunt Amentes - таба, видео

Регистрация Запомнить меня
Войти через:  Facebook Google Twitter Vk Yandex Mail.ru

Panda - Amantes Sunt Amentes - таба, видео

Печатать
Просмотров: 88
Este es un de los mejores discos de panda y quero compartirlo con ustedes.,
se lo de dico a todos mis amogos de la ETI Oscar, Lorena, Diana, Monica ,Paola, Geovanna 
los que se me olvidaron.

        Canciones:
                  1.LA ESTRATEGIA PERDIDA
                  2.SO VIOLENTO SO MACABRO
                  3.EL INFAME ESTAR Y NO ESTAR
                  4.ESTOT MAS SOHLOH QUE AYER PERO MENOS QUE MAÑANA
                  5.NARCISISTA POR EXELENCIA
                  6.PROCEDIMIENTOS PARA LLEGAR A  UN COMUN ACUERDO
                  7.TRIPULACION ARMAR TOBOGANES
                  8.PATHETICA
                  9.LOS MALAVENTURADOS NO LLORAN
                 10.TUS PALABRAS PUNZOCORTANTES
                 11.ATRCTIVO ENCONTRAMOS EN LO MAS REPUGNANTE
                 12.¡AH PERO COMO VENDO CASSETTES!


1.LA ESTRATEGIA PERDIDA
/////////////////////////////////////////////////////


Intro: 0:00
Guitarra 1 (ARTURO)

d#----------------------------19-19-18-18-16-16-16---------------|
A#-16-16-16-17-17-17-14-14-14----------------------16-16--14(x8)-|
F#---------------------------------------------------------------|
C#---------------------------------------------------------------|
G#---------------------------------------------------------------|
D#---------------------------------------------------------------|

d#---------------------------19-19-18-18-16-16--16-17--17-18--18-19h21-19-|
A#16-16-16-17-17-17-14-14-14------------------17-----18-----19------------|
F#------------------------------------------------------------------------|
C#------------------------------------------------------------------------|
G#------------------------------------------------------------------------|
D#------------------------------------------------------------------------|
Todo esto se repite 2 veces

MIENTRAS LA SEGUNDA GUITARRA (PEPE) EN EL INTRO TOCA ESTO
Solo vean y chequen los tiempos

Guitarra 2 (PEPE) 0:00
d#--------------------------------------------------|
A#--------------------------------------------------|
F#----------------------------6-6-6-6--9-9-9-9------|  (x2)
C#-9-9-9-9--8-8-8-8--6-6-6-6--6-6-6-6--9-9-9-9------|
G#-9-9-9-9--9-9-9-9--6-6-6-6--4-4-4-4--7-7-7-7------|
D#-7-7-7-7--6-6-6-6--4-4-4-4------------------------|

GUITARRA DE FOND
Guitarra 1 (arTuR) 0:35

Vas venciendo pero trataré, de alguna manera lo recordaré
d#----------------15---------------15—15-14-15v-----|
A#-14-14-14-14-14----14-14-14-14-14-----------------|
F#--------------------------------------------------|
C#--------------------------------------------------|
G#--------------------------------------------------|
D#--------------------------------------------------|

d#----------------15---------------15/18—18-17-17-15-|v
A#-14-14-14-14-14----14-14-14-14-14------------------|
F#---------------------------------------------------|
C#---------------------------------------------------|
G#---------------------------------------------------|
D#---------------------------------------------------|
Se repite 2 veces

PRECORO:
Ambas Guitarras (PEPE y ArTuR) 0:51

Que... .. yo aseguré que nunca que nunca volvería, volvería a ceder
d#---------------------|
A#---------------------|
F#---------------------|
C#-9-9-9-9--6----------|
G#-9-9-9-9--6----------|
D#-7-7-7-7--4----------|

1:00
d#------------------------------------|
A#------------------------------------|
F#------------------------------------|  (x2)
C#-9-9-9-9--12/14-9-9-9-9-14/12-------|
G#-9-9-9-9--12/14-9-9-9-9-14/12-------|
D#-7-7-7-7--10/12-7-7-7-7-12/10-------|


CORO: 1:06
AMBAS GUITARRAS

Comento que todo el tiempo he evitado este momento. . .
d#---------------------------------------------------|
A#---------------------------------------------------|
F#----------6-6-6-6----------------------------------|  (x2)
C#-9-9-9-9--6-6-6-6--6-6-6--6--2-2-2-2--4-4-4-4------|
G#-9-9-9-9--8-8-8-8--6-6-6--6--2-2-2-2--4-4-4-4------|
D#-7-7-7-7-----------4-4-4--4--0-0-0-0--2-2-2-2------|


LUEGO VIENE DE NUEVO EL INTRO AL MINUTO 1:29

DESPUES VIENE UNA GUITARRA DE FONDO
1:41
GUITARRA 2(PEPE)

Ya no se que hacer con estas manos cuando hablo contigo. . .
d#---------------------------------------------------|
A#---------------------------------------------------|
F#---------------------------------------------------|
C#---------------------------------------------------|
G#--------------4V—-7V—-6V--------------4V--7V--6----|4V
D#--7V—-6V-—4V---------------7V-—6V--4V--------------|

1:52
Guitarra 2 (arTuR) Tu no sabes a dónde mirar. . .
d#----------------15---------------15—15-14-15v-----|
A#-14-14-14-14-14----14-14-14-14-14-----------------|
F#--------------------------------------------------|
C#--------------------------------------------------|
G#--------------------------------------------------|
D#--------------------------------------------------|

d#----------------15---------------15/18—18-17-17-15-|v
A#-14-14-14-14-14----14-14-14-14-14------------------|
F#---------------------------------------------------|
C#---------------------------------------------------|
G#---------------------------------------------------|
D#---------------------------------------------------|

2:03 AMBAS AL MISMO TIEMPO

GUITARRA 2 (PEPE)
Confieso, en tu sueño, que yo te estaba viendo. . .
d#-------------------------------------------------|
A#-------------------------------------------------|
F#-------------------------------------------------|
C#-------------------------------------------------|
G#-14(X8)—16(8X)-----------------------------------|
D#-------------------------------------------------|
2:03
GUITARRA 1 (ArTuR)
d#-----------------------------------------------|
A#-----------------------------------------------|
F#-----------------------------------------------|
C#-9-9-9-9-7—-9-9-9-11-9-------------------------|
G#-----------------------------------------------|
D#-----------------------------------------------|

2:08
Ambas Guitarras (PEPE y ArTuR)
d#---------------------|
A#---------------------|
F#---------------------|
C#-9-9-9-9--6----------|
G#-9-9-9-9--6----------|
D#-7-7-7-7--4----------|

2:11 AMBAS AL MISMO TIEMPO

GUITARRA 2 (PEPE)

Mientras dormías tu cara tocar. . .
d#-----------------------------------------------|
A#-----------------------------------------------|
F#-----------------------------------------------|
C#-----------------------------------------------|
G#-14(X8)—16(8X)---------------------------------|
D#-----------------------------------------------|

2:11
GUITARRA 1 (ArTuR)
d#-----------------------------------------------|
A#-----------------------------------------------|
F#-----------------------------------------------|
C#-7-9-9-9-9—11-11-13-11-9-----------------------|
G#-----------------------------------------------|
D#-----------------------------------------------|

2:17
Ambas Guitarras
d#------------------------------------|
A#------------------------------------|
F#------------------------------------|  (x2)
C#-9-9-9-9--12/14-9-9-9-9-14/12-------|
G#-9-9-9-9--12/14-9-9-9-9-14/12-------|
D#-7-7-7-7--10/12-7-7-7-7-12/10-------|

Luego sigue el coro

CORO: 2:23
AMBAS GUITARRAS

Comento que todo el tiempo he evitado este momento. . .
d#---------------------------------------------------|
A#---------------------------------------------------|
F#----------6-6-6-6----------------------------------|  (x2)
C#-9-9-9-9--6-6-6-6--6-6-6--6--2-2-2-2--4-4-4-4------|
G#-9-9-9-9--8-8-8-8--6-6-6--6--2-2-2-2--4-4-4-4------|
D#-7-7-7-7-----------4-4-4--4--0-0-0-0--2-2-2-2------|


Se repite el coro y termina con el las notas y acordes del Intro

CORO: 2:46
Guitarra 1 (ARTURO)

Comento que todo el tiempo he evitado este momento. . .
d#----------------------------19-19-18-18-16-16-16------------------|
A#-16-16-16-17-17-17-14-14-14----------------------16-16-----1------|4(x8)
F#------------------------------------------------------------------|
C#------------------------------------------------------------------|
G#------------------------------------------------------------------|
D#------------------------------------------------------------------|

d#---------------------------19-19-18-18-16-16--16-17--17-18--18-19h21-19-|
A#16-16-16-17-17-17-14-14-14------------------17-----18-----19------------|
F#------------------------------------------------------------------------|
C#------------------------------------------------------------------------|
G#------------------------------------------------------------------------|
D#------------------------------------------------------------------------|
Todo esto se repite 2 veces

Guitarra 2 (PEPE) 2:46
d#--------------------------------------------------|
A#--------------------------------------------------|
F#----------------------------6-6-6-6--9-9-9-9------|  (x2)
C#-9-9-9-9--8-8-8-8--6-6-6-6--6-6-6-6--9-9-9-9------|
G#-9-9-9-9--9-9-9-9--6-6-6-6--4-4-4-4--7-7-7-7------|
D#-7-7-7-7--6-6-6-6--4-4-4-4------------------------|

AQUÍ ABAJO LES DEJO LA LETRA DE LA ROLA


Yo no entiendo como el subconsciente aún recuerda
las cosas que yo descarté
Vas venciendo pero trataré,
de alguna manera lo recordaré

Y sigo perdiendo todos aquellos juegos que.....yo aseguré que nunca
que nunca volvería, volvería a ceder

Comento que todo el tiempo he evitado este momento
Se siente que es ficción, se siente que es ficción
Yo se, soy insuficiente, ya olvidé cómo hacerle
Que empiece la función, disfruten la función

Ya no se que hacer con estas manos
cuando hablo contigo, no se que hacer
Tu no sabes a dónde mirar,
entonces mis manos ves para mis ojos librar

Confieso, en tu sueño, que yo te estaba viendo....mientras dormías
Tu cara tocar, pero es sólo otra prueba de que ando mal

Comento que todo el tiempo he evitado este momento
Se siente que es ficción, se siente que es ficción
Yo se, soy insuficiente, ya olvidé cómo hacerle
Que empiece la función, disfruten la función
///////////////////////////////////////////////////////////////////////////
2.SO VIOLENTO SO MACABRO
/////////////////////////////////////////////


Intro x2
   1ra lira
D#||------8----7-------8----7----|------8----7-------8----7----|
A#||-----------------------------|-----------------------------|
F#||---------9----9-------9----9-|---------9----9-------9----9-|
C#||--10------------7------------|--10------------7------------|
G#||-----------------------------|-----------------------------|
D#||-----------------------------|-----------------------------|

------8-----7-----8-----10-----8--|-----8----7----8----10----8--|
----------------------------------|-----------------------------|
----------------------------------|--9-----9----9----9-----9----|
--10-----10----10----10-----10----|-----------------------------|
----------------------------------|-----------------------------|
----------------------------------|-----------------------------|

------8-----12-----8-----12-----8--|-----10----12----10----12----10--|
--10-----10-----10----10-----10----|--8------8-----8-----8-----8-----|
-----------------------------------|---------------------------------|
-----------------------------------|---------------------------------|
-----------------------------------|---------------------------------|
-----------------------------------|---------------------------------|
  2da lira
D#||-------------------|------------|----------------------------------|
A#||-------------------|------------|----------------------------------|
F#||-------------------|------------|--5-5-5-5-5-5-5-5-5-5-5-5-5-5-5-5-|
C#||-------------------|------------|--5-5-5-5-5-5-5-5-5-5-5-5-5-5-5-5-|
G#||-------------------|------------|--3-3-3-3-3-3-3-3-3-3-3-3-3-3-3-3-|
D#||-------------------|------------|----------------------------------|

----------------------------------|----------------------------------|
----------------------------------|----------------------------------|
--9-9-9-9-9-9-9-9-9-9-9-9-9-9-9-9-|----------------------------------|
--9-9-9-9-9-9-9-9-9-9-9-9-9-9-9-9-|--7-7-7-7-7-7-7-7-7-7-7-7-7-7-7-7-|
--7-7-7-7-7-7-7-7-7-7-7-7-7-7-7-7-|--7-7-7-7-7-7-7-7-7-7-7-7-7-7-7-7-|
----------------------------------|--5-5-5-5-5-5-5-5-5-5-5-5-5-5-5-5-|

----------------------------------|
----------------------------------|
----------------------------------|
--3-3-3-3-3-3-3-3-5-5-5-5-5-5-5-5-|
--3-3-3-3-3-3-3-3-5-5-5-5-5-5-5-5-|
--1-1-1-1-1-1-1-1-3-3-3-3-3-3-3-3-|


Verso 1 con Palm mute
------------------------------------------|
------------------------------------------|
--5---------------------------------------|
--5--5--5--5--5--5--5--5--5--5--5--5------|
--3--3--3--3--3--3--3--3--3--3--3--3--2---|
--------------------------------------0---|
Me cuesta tanto...
------------------------------------------|
------------------------------------------|
------------------------------------------|
--7---------------------------------------|
--7--7--7--7--7--7--7--7--7--7--7--7--2---|
--5--5--5--5--5--5--5--5--5--5--5--5--0---|

------------------------------------------|
------------------------------------------|
--5---------------------------------------|
--5--5--5--5--5--5--5--5--5--5--5--5------|
--3--3--3--3--3--3--3--3--3--3--3--3--2---|
--------------------------------------0---|

------------------------------------------|---------------------|
------------------------------------------|---------------------|
------------------------------------------|---------------------|
--7---------------------------------------|--5------------------|
--7--7--7--7--7--7--7--7--7--7--7--7--3---|--5--------------2---|
--5--5--5--5--5--5--5--5--5--5--5--5--1---|--3--------------0---|

---------------------|---------------------|--------------------|
---------------------|---------------------|--------------------|
---------------------|---------------------|--------------------|
--7------------------|--5------------------|--3--------5--------|
--7-------------3----|--5-------------2----|--3--------5--------|
--5-------------1----|--3-------------0----|--1--------3--------|

Verso 2
1er lira
------8-----7-----8-----10-----8--|-----8----7----8----10----8--|
----------------------------------|-----------------------------|
----------------------------------|--9-----9----9----9-----9----|
--10-----10----10----10-----10----|-----------------------------|
----------------------------------|-----------------------------|
----------------------------------|-----------------------------|
Y sabes de lo..
------8-----12-----8-----12-----8--|-----10----12----10----12----10-|
--10-----10-----10----10-----10----|--8------8-----8-----8-----8----|
-----------------------------------|--------------------------------|
-----------------------------------|--------------------------------|
-----------------------------------|--------------------------------|
-----------------------------------|--------------------------------| x2
2da lira
----------------------------------|----------------------------------|
----------------------------------|----------------------------------|
--5-5-5-5-5-5-5-5-5-5-5-5-5-5-5-5-|--9-9-9-9-9-9-9-9-9-9-9-9-9-9-9-9-|
--5-5-5-5-5-5-5-5-5-5-5-5-5-5-5-5-|--9-9-9-9-9-9-9-9-9-9-9-9-9-9-9-9-|
--3-3-3-3-3-3-3-3-3-3-3-3-3-3-3-3-|--7-7-7-7-7-7-7-7-7-7-7-7-7-7-7-7-|
----------------------------------|----------------------------------|

----------------------------------|----------------------------------|
----------------------------------|----------------------------------|
----------------------------------|----------------------------------|
--7-7-7-7-7-7-7-7-7-7-7-7-7-7-7-7-|--3-3-3-3-3-3-3-3-5-5-5-5-5-5-5-5-|
--7-7-7-7-7-7-7-7-7-7-7-7-7-7-7-7-|--3-3-3-3-3-3-3-3-5-5-5-5-5-5-5-5-|
--5-5-5-5-5-5-5-5-5-5-5-5-5-5-5-5-|--1-1-1-1-1-1-1-1-3-3-3-3-3-3-3-3-| x2

Breack
--------------------------------|---------------------------------|
--------------------------------|---------------------------------|
-----------------5-5-5-5-5------|---------------------------------|
--2-2-2-2-2------5-5-5-5-5------|--2-2-2-2-2------7-7-7-7-7-3-3-3-|
--2-2-2-2-2---2--3-3-3-3-3---2--|--2-2-2-2-2---2--7-7-7-7-7-3-3-3-|
--0-0-0-0-0---0--------------0--|--0-0-0-0-0---0--5-5-5-5-5-1-1-1-|


Verso 3 con efecto acustico

------------------------------------|---------------------------------|
-----(3)-(3)----------(3)-(3)-------|---------------------------------|
--5---5---5--5--5--5---5---5--5--5--|-----(5)-(5)----------(5)-(5)----|
--5---5---5--5--5--5---5---5--5--5--|--7---7---7--7--7--7---7---7--7--|
--3---3---3--3--3--3---3---3--3--3--|--7---7---7--7--7--7---7---7--7--|
------------------------------------|--5---5---5--5--5--5---5---5--5--|
Estoy elaborando...
------------------------------------|------------------------------------|
-----(3)-(3)----------(3)-(3)-------|------------------------------------|
--5---5---5--5--5--5---5---5--5--5--|-----(5)-(5)----------(5)-(5)-------|
--5---5---5--5--5--5---5---5--5--5--|--7---7---7--7--7--7---7---7--7--7--|
--3---3---3--3--3--3---3---3--3--3--|--7---7---7--7--7--7---7---7--7--7--|
------------------------------------|--5---5---5--5--5--5---5---5--5--5--|


---3------3------3----3----3----3-|---0------0-----(0)---0---(0)--(0)|
---3------3------3----3----3----3-|---1------1------1----1----1----1-|
---0------0-----(0)---0---(0)---0-|--(2)----(2)-----2---(2)---2----2-|
----------------------------------|---2------2------2----2----2----2-|
--(2)----(2)-----2---(2)---2---(2-|---0------0-----(0)---0---(0)--(0-|
--(3)----(3)----(3)--(3)--(3)--(3)|----------------------------------|
Confia en mi amor...

---3------3------3----3----3----3---|--1---------3---------|
---3------3------3----3----3----3---|--1---------3---------|
---0------0-----(0)---0---(0)---0---|--2---------0---------|
------------------------------------|--3---------0---------|
--(2)----(2)-----2---(2)---2---(2)--|-----------(2)--------|
--(3)----(3)----(3)--(3)--(3)--(3)--|----------------------|

Aquí comienza de nuevo la distorsión

1er lira
------8-----7-----8-----10-----8--|-----8----7----8----10----8--|
----------------------------------|-----------------------------|
----------------------------------|--9-----9----9----9-----9----|
--10-----10----10----10-----10----|-----------------------------|
----------------------------------|-----------------------------|
----------------------------------|-----------------------------|
De antemano...
------8-----12-----8-----12-----8--|-----10----12----10----12----10--|
--10-----10-----10----10-----10----|--8------8-----8-----8-----8-----|
-----------------------------------|---------------------------------|
-----------------------------------|---------------------------------|
-----------------------------------|---------------------------------|
-----------------------------------|---------------------------------| x2
2da lira
----------------------------------|----------------------------------|
----------------------------------|----------------------------------|
--5-5-5-5-5-5-5-5-5-5-5-5-5-5-5-5-|--9-9-9-9-9-9-9-9-9-9-9-9-9-9-9-9-|
--5-5-5-5-5-5-5-5-5-5-5-5-5-5-5-5-|--9-9-9-9-9-9-9-9-9-9-9-9-9-9-9-9-|
--3-3-3-3-3-3-3-3-3-3-3-3-3-3-3-3-|--7-7-7-7-7-7-7-7-7-7-7-7-7-7-7-7-|
----------------------------------|----------------------------------|

----------------------------------|----------------------------------|
----------------------------------|----------------------------------|
----------------------------------|----------------------------------|
--7-7-7-7-7-7-7-7-7-7-7-7-7-7-7-7-|--3-3-3-3-3-3-3-3-5-5-5-5-5-5-5-5-|
--7-7-7-7-7-7-7-7-7-7-7-7-7-7-7-7-|--3-3-3-3-3-3-3-3-5-5-5-5-5-5-5-5-|
--5-5-5-5-5-5-5-5-5-5-5-5-5-5-5-5-|--1-1-1-1-1-1-1-1-3-3-3-3-3-3-3-3-| x2

 Preparacion para el solo
-------------------|-------------------|
-------------------|-------------------|
-------------------|-------------------|
--2----------------|-------------------|
--2----------------|-------------------|
--0----------------|-------------------|

SOLO:
--------------------------------------------------|
--------------------------------------------------|
--12-12-12-9--9--9--------------------------------|
--------------------9--9--9--9--9--9--9--9--9--9--|
--------------------------------------------------|
--------------------------------------------------|

-----------------------------------------------|------------------------|
-----------------------------------------------|------------------------|
-12-12-12-9--9--9------------------------------|------------------------|
------------------9--9--9--9--9--9--9--9--9--9-|--9---5---9---5---2--2--|
-----------------------------------------------|--9---5---9---5---2--2--|
-----------------------------------------------|--7---3---7---3---0--0--|



------------------------|------------------------|
------------------------|------------------------|
------------------------|------------------------|
--9---5---9---5---2--2--|--9---5---9---5---2--2--|
--9---5---9---5---2--2--|--9---5---9---5---2--2--|
--7---3---7---3---0--0--|--7---3---7---3---0--0--|

--/18~----18~----18~----18~--|--18~----18~----/17~--17~-|
-----------------------------|--------------------------|
-----------------------------|--------------------------|
-----------------------------|--------------------------|
-----------------------------|--------------------------|
-----------------------------|--------------------------|

--/15~----15~--14~---13~--|--18~----18~----/17~----17~----|
--------------------------|-------------------------------|
--------------------------|-------------------------------|
--------------------------|-------------------------------|
--------------------------|-------------------------------|
--------------------------|-------------------------------|

--15~----14s----24~----24b----|--------------|------------|
------------------------------|--------------|------------|
------------------------------|--------------|------------|
------------------------------|--------------|------------|
------------------------------|--------------|------------|
------------------------------|--------------|------------|

4 verso Acustico
|--------------0-----------|
|--------1--------1-----1--|
|-----0-----0--------0-----|
|--------------------------|
|--3-----------------------|
|--------------------------|
Y sabes de...
--------------0-----------|--------------0-----------|--1--------3--|
--------0--------0-----0--|--------1--------1-----1--|--1--------3--|
-----0-----0--------0-----|-----------2--------2-----|--2--------0--|
--------------------------|-----2--------------------|--3--------0--|
--------------------------|--0-----------------------|--------------|
--0-----------------------|--------------------------|--------------|

5 verso
1er lira
------8-----7-----8-----10-----8--|-----8----7----8----10----8--|
----------------------------------|-----------------------------|
----------------------------------|--9-----9----9----9-----9----|
--10-----10----10----10-----10----|-----------------------------|
----------------------------------|-----------------------------|
----------------------------------|-----------------------------|
No lo hagó por mi...
------8-----12-----8-----12-----8--|-----10----12----10----12----10--|
--10-----10-----10----10-----10----|--8------8-----8-----8-----8-----|
-----------------------------------|---------------------------------|
-----------------------------------|---------------------------------|
-----------------------------------|---------------------------------|
-----------------------------------|---------------------------------| x2
2da lira
----------------------------------|----------------------------------|
----------------------------------|----------------------------------|
--5-5-5-5-5-5-5-5-5-5-5-5-5-5-5-5-|--9-9-9-9-9-9-9-9-9-9-9-9-9-9-9-9-|
--5-5-5-5-5-5-5-5-5-5-5-5-5-5-5-5-|--9-9-9-9-9-9-9-9-9-9-9-9-9-9-9-9-|
--3-3-3-3-3-3-3-3-3-3-3-3-3-3-3-3-|--7-7-7-7-7-7-7-7-7-7-7-7-7-7-7-7-|
----------------------------------|----------------------------------|

----------------------------------|----------------------------------|
----------------------------------|----------------------------------|
----------------------------------|----------------------------------|
--7-7-7-7-7-7-7-7-7-7-7-7-7-7-7-7-|--3-3-3-3-3-3-3-3-5-5-5-5-5-5-5-5-|
--7-7-7-7-7-7-7-7-7-7-7-7-7-7-7-7-|--3-3-3-3-3-3-3-3-5-5-5-5-5-5-5-5-|
--5-5-5-5-5-5-5-5-5-5-5-5-5-5-5-5-|--1-1-1-1-1-1-1-1-3-3-3-3-3-3-3-3-| x2


Termina asi
1er lira
|-------------------|--------------------|
|-------------------|--------------------|
|--9-------(0)------|--------------------|
|-------------------|--------------------|
|-------------------|--------------------|
|-------------------|--------------------|
2da lira
-------------------|-------------------|
-------------------|-------------------|
--5---------(0)----|-------------------|
--5---------(0)----|-------------------|
--3---------(0)----|-------------------|
-------------------|-------------------|


aDeMaS aQuI sTa La LeTrA cOn AcOrDeS, AhOrA sI
a PeGaRlE dUrO!!!


Afinacion Bemol

C-Em-Am-F-G x2
C                         Am
Te voy a hablar con la verdad
                     C
Me cuesta tanto imaginar
                                Am                       G
Me cuesta tanto aceptar que el “tu y yo” ya no se va a usar

                  Am                            G
Y aprendo una vez más, las cosas que realmente amas te
       F       G
apuñalan la espalda

    C                  Em
Y sabes de lo que soy capaz
             Am                  F    G
Tengo un complejo muy crudo y psicópata
     C                    Em
Te quiero para mi, sola para mi
         Am                      F    G
Que no ves que conmigo es  puro frenesí

Em-C-Em-Am-F

C                    Am
Estoy elaborando un plan
                C
Para hacerte enojar
                                 Am
Quiero que te quede claro que si no es conmigo con nadie
         G
vas a estar


G              Am                  G
Confía en mi, amor....lo tengo calculado
              F           G             C          Em
Si algo sale mal, pido perdón de ante mano, pues así soy yo
          Am                      F     G
Te tengo amor obsesivo, un poco tétrico
          C             Em
Te invito a sentir malestar sin fin
         Am               F       G
Dame tu mano, pongámosle fin al sufrir


Solo:
Bm-G-Bm-G-Em x8

  C                    Em
Y sabes de lo que soy capaz
             Am                 F    G
Tengo un complejo muy crudo y psicópata
       C                 Em
No lo hagó por mi, sino por los dos
        Am               F         G
Será macabro peró salvará nuestro amor
               C                   Em
Me tienes que creer, tienes que confiar
         Am                    F       G   C
El sentimiento es profundo y también real

////////////////////////////////////////////////////////////////////////////
3.EL INFAME ESTAR Y NO ESTAR
////////////////////////////////////////

ACORDES:> Sib - Fa - Re#m - Solm

INTRO1: EFECTO RARO

INTRO2 DE GUITARRA:

Solm
-------------------------------------------|
-------------------------------------------|
-------------------------------------------|
-------------------------------------------|
-10-11-10-11---10-11-13-11-8-10-11-13-11---|
------------13-----------------------------|

Sib                  Re#m
--------------------------------------------|
--------------------------------------------|
--------------------------------------------|
--------------------------------------------|
-10-11-10-11---10-11-13-11-10-11--13s15-13--|
------------13------------------------------| (X 2 VECES)

MIENTRAS UNA GUITARRA REQUINTEA, LA OTRA GUITARRA DISTORSIONADA,
KE ES EL RITMO, TOCA LO SIGUIENTE:

Solm - Sib - Re#m x 2 veces

VERSO:
(OJO: Chequen el ritmo de los versos, pq los tiempos son
cortados y van con palm mute)

Solm        Sib        Re#m        Solm
Piensas que, me he portado muy casual,
             Sib         Re#m      Solm
Pero no es así, no es mi personalidad,
              Sib          Re#m      Solm
Pero que crees, le hago al investigador,
           Sib  Re#m     Sib
Para así poder, estudiarte.

CORO:
(ENTRA DISTORSIÓN)

Sib    Fa         Re#m      Solm         Sib
    Estoy muy convencido que es la solución,
            Fa             Re#m - Solm
El ser intenso con discreción,
Sib    Fa         Re#m      Solm         Sib
    Estoy muy convencido que esto te castigará,
   Fa         Re#m          Solm        Sib - Re#m
Estar y no estar igual a intenso o casual.

VERSO:
(VUELVE EL MISMO RITMITO)

Solm     Sib      Re#m       Solm
Al caminar hacia donde tu estás
             Sib         Re#m      Solm
Te persigo y tu nunca cuenta te darás
                 Sib         Re#m          Solm
Me siento un criminal sin haber hecho algo mal
              Sib      Re#m           Sib
Pero prometo que al final te va a gustar

CORO:
(ENTRA DISTORSIÓN)

Sib    Fa         Re#m      Solm         Sib
    Estoy muy convencido que es la solución,
            Fa             Re#m - Solm
El ser intenso con discreción,
Sib    Fa         Re#m      Solm         Sib
    Estoy muy convencido que esto te castigará,
   Fa         Re#m          Solm        Sib - Re#m
Estar y no estar igual a intenso o casual.


INTER DE GUITARRA:

Solm
-------------------------------------------|
-------------------------------------------|
-------------------------------------------|
-------------------------------------------|
-10-11-10-11---10-11-13-11-8-10-11-13-11---|
------------13-----------------------------|

Sib                  Re#m
--------------------------------------------|
--------------------------------------------|
--------------------------------------------|
--------------------------------------------|
-10-11-10-11---10-11-13-11-10-11--13s15-13--|
------------13------------------------------| (X 4 VECES)

OJO GUITARRA RITMO: (QUE EN ESTA PARTE DEL INTER DE GUITARRA,
                     LAS PRIMERAS 2 VUELTAS DEL REQUINTO, SE
                     USA EL RITMO DE LOS VERSOS, YA HASTA DONDE
                     EMPIEZA LA 3ERA. VUELTA DEL RQUINTO, ENTRA
                     LA DISTORSIÓN.)

REDOBLES DE BATERIA (un rasgueo con distor por cada acorde)

Re#m
(Primer redoble)-Cuenta los tiempos así: 1, 2, 3, 4, 5, 6, 7, 8,

Fa
(Segundo Redoble) 1, 2, 3, 4, 5, 6, 7, 8,

Solm
(Tercer redoble) 1, 2, 3, 4,

Sib
(Cuarto redoble) 1, 2, 3, 4,

Fa
(Quinto redoble) 1, 2, 3, 4,

(Re#m) Este va con slide

CORO:
(CON DISTORSIÓN)

Sib    Fa         Re#m      Solm         Sib
    Estoy muy convencido que es la solución,
            Fa             Re#m - Solm
El ser intenso con discreción,
Sib    Fa         Re#m      Solm         Sib
    Estoy muy convencido que esto te castigará,
   Fa         Re#m          Solm        Sib
Estar y no estar igual a intenso o casual.

Sib - Fa - Re#m - Solm
Sib - Fa - Re#m - Solm
Re#m (GUARDA SILENCIO DISTORSIÓN)

(ESTOS 2 ACORDES SON CON GUITARRA LIMPIA)
Re#m - Sib

////////////////////////////////////////////////////////////////////////////
4.ESTOY MAS SOHLOH QUE AYER PERO MENOS QUE MAÑANA
////////////////////////////////////////////////////


(Intro1)--> Es la primera guitarra haciendo un solo, no entra
            la 2da. Guitarra
(Intro2)--> Es cuando ya entra la 2da. Guitarra, en el
            segundo 9 y hace los siguientes acordes.

Re#m-[La#]-Si-[Solm]-Sol#m-[Do]-Do# x 4 veces
(Las notas encerradas quieren decir que se van a tocar muy breve,
oye la canción original y lo notarás)

(Verso)
(No va ritmo, pero estas son las notas si las quieren tocar)
Re#m                 Si
Todo lo que yo me dedico a hacer,
          Re#m              Si
Es solo una simple distracción,
     Re#m                 Si           Re#m
Del hecho seguro que sufriendo yo, acabaré,
              Si
Eventualmente moriré.

(Cambio)
(Entra guitarra limpia)
Sol#m-Si-Do#

(Coro)
(Cambio a guitarra con distor)
Re#m         La#            Si
Sufro de una enfermedad mental,
           Sol#m
Y sentimental,
         Re#m        La#       Si
Soy un ególatra, convencional, ohh!
               Sol#m
Yo se que al final,
          Re#m
Me rechazará.

(La guitarra distorcionada guarda silencio)

(Verso)(Nada más queda el solo como el del intro)
       (Pueden tocarlo con el patrón de versos si quieren)
Re#m                        Si
Creo que el “no”, ya lo tengo,
                       Re#m
Que eres lo que siempre yo he tenido,
    Si                         Re#m
El “si”, es mucho es más difícil de conseguir,
          Si           Re#m
Que el poder hacerla reír,
               Si
No, es eso es más complejo

(Cambio)
(Entra guitarra limpia)
Sol#m-Si-Do#

(Coro)
(Cambio a guitarra con distor)
Re#m         La#            Si
Sufro de una enfermedad mental,
           Sol#m
Y sentimental,
         Re#m        La#       Si
Soy un ególatra, convencional, ohh!
               Sol#m
Yo se que al final,
          Re#m
Me rechazará.

(La guitarra distorsionada guarda silencio)
(Interlude de Batería y Bajo)
(Pueden tocar con estos acordes: Re - Si x 2 veces)

(Verso)(Entra la primera guitarra que hace otro solo)
       (Pueden tocarlo con el patrón de versos si quieren)
      Re#m                   Si
Me dijeron también que ella se lo pierde,
Re#m                    Si
    Pero no logro entender,
Re#m                        Si
Como es que alguien podría perder algo,
Re#m                Si
 Si ni siquiera logró ganarlo.

(Breve Silencio)

(Coro)
(Cambio a guitarra con distor)
Re#m         La#            Si
Sufro de una enfermedad mental,
           Sol#m
Y sentimental,
         Re#m        La#       Si
Soy un ególatra, convencional, ohh!
               Sol#m
Yo se que al final,
Re#m         La#            Si
Sufro de una enfermedad mental,
           Sol#m
Y sentimental,
         Re#m        La#  Si
Soy caballero demencial, ohh!
               Sol#m
Yo se que al final,
          Re#m
Me rechazará.

Rematas en Re#m para cerrar

////////////////////////////////////////////////////////////////////////////
5.NARCISISTA POR EXELENCIA
//////////////////////////////


La afinación ya saben que va medio tono atrás, pero me ahorro
la explicación,

Afinada en bemol

0:00 Intro1

e/--------------/-------------/------------/------------/
b/--------------/-------------/------------/------------/
g/--------------/-------------/------------/------------/
D/--------------/-------------/------------/------------/x2
A/------------6-/-----------6-/-7--7--7--6-/-7--7--7--6-/
E/-4--4--2--4---/4--4--2--4---/------7-----/------7-----/

0:11 Intro2

e/--------------/--------------/--------------/--------------/
b/--------------/--------------/--------------/--------------/
g/-------------8/-------------8/-9--9-----8--8/-9--9-----9--8/
D/-6--6--4--6--8/-6--6--4--6--8/-9--9--9--9--8/-9--9--9--9--8/4x
A/-6--6--4--6--6/-6--6--4--6--6/-7--7--9--7--6/-7--7--9--7--6/
E/-4--4--2--4---/-4--4--2--4---/-------7------/-------7------/

0:22 Sabes que es la inseguridad....aceptado mi fealdad

e/------/--------/--------/------/----------------/
b/------/--------/--------/------/----------------/
g/------/-8--9—9-/--------/--9---/-----8h9--------/
D/-6--6-/-8--9—9-/-4--6—6-/--9---/-4h6-8h9-6h4----/
A/-6--6-/-6--7—7-/-4--6—6-/--7---/-4h6-6h7-6h4----/
E/-4--4-/--------/-2--4—4-/------/-2h4-----4h2----/

0:34 Porque ahora yo no tengo...

e/---------/    /-----------/
b/---------/    /-----------/
g/---------/4x  /-8—9-9-9---/x4
D/-4—6—6—6-/    /-8—9-9-9---/
A/-4—6—6—6-/    /-6—7-7-7---/
E/-2—4—4—4-/    /-----------/


0:46 En mi...

e/---------------------------------/
b/---------------------------------/
g/--6—6—6-8-9999--11-----11--11h13-/
D/--6—6—6-8-9999--11--9--11--11h13-/3x la cuarta vez
A/--4—4—4-6-7777--9---9--9---9h11--/es diferente
E/--------------------7------------/


e/---------------------/
b/---------------------/
g/--6-6-6-8-9----------/
D/--6-6-6-8-9---4-4----/
A/--4-4-4-6-7---4-4----/
E/--------------2-2----/


1:08 CORO:
Suponiendo que en la gente......

e/----------------------------/
b/----------------------------/
e/---------999999----------11-/
D/-666666--999999--999999--11-/
A/-666666--777777--999999--9--/
E/-444444----------777777-----/

Pues belleza es la palabra......
e/---------------------------------------/
b/---------------------------------------/
e/----------99999999-----------11--9—-8--/
D/-6666666--99999999--9999999--11--9—-8--/
A/-6666666--77777777--9999999--9---7—-6--/
E/-4444444------------7777777------------/

1:20 Disfraz, disfraz, narcisista artificial ...todo es mental...

e/---------------------------------/--------------------------/
b/---------------------------------/--------------------------/
g/-99999------------11-11-11-------/-999999-------------------/
D/-99999--99999999--11-11-11-66666-/-999999--99999--444444444-/
A/-77777--99999999--9--9--9--66666-/-777777--99999--444444444-/
E/--------77777777-----------44444-/---------77777--222222222-/

Intro2 1:31

1:42
¿como me peinaré esta noche?....
e/----------------------------------/
b/-5-5-5-4-4-4--0--0----------------/
g/-------------------1-1-1-1-1-1-1-1/
D/----------------------------------/
A/----------------------------------/
E/----------------------------------/

e/--------------4-4-6-6-6-7-7-7-6-6-/
b/--5-5-5-4-4-4---------------------/
g/----------------------------------/Todo esto se repite 3 veces
D/----------------------------------/y la ultima es diferente
A/----------------------------------/y va así
E/----------------------------------/

/--------------------4-4-6-6-6-7-7-7-9-11—11pull up-/
/-5-5-5-4-4-4-4-------------------------------------/
/---------------------------------------------------/
/---------------------------------------------------/
/---------------------------------------------------/
/---------------------------------------------------/

Coro 2:07

2:30 Luego sigue el solo del piano seguido después del solo
de la guitarra que va así

/-----------------------------------/
b/--12v--9V---12V--8v--12v--9v--12v-/
g/----------------------------------/
D/----------------------------------/Esto se toca junto con el
A/----------------------------------/piano, y despues el solo
E/----------------------------------/


2:56 Solo.


e/-12-12-12-12-12-12-12-/---------------/
b/-12-12-12-12-12-12-12—/12-11-9----9---/
g/----------------------/--------11---8-/3x
D/----------------------/---------------/
A/----------------------/---------------/
E/----------------------/---------------/

e/----------------------------------/
b/-12-11-9-----9--------------------/
g/---------11----8----9-11-9-8-9-8--/
D/----------------------------------/ todo esto 2 veces
A/----------------------------------/
E/----------------------------------/

e/--------------12-11---/-------------12-11-12-14-12-11-/
b/-12-11-9----9-------12/-12-11-9----9------------------/
g/---------11-----------/---------11--------------------/
D/----------------------/-------------------------------/
A/----------------------/-------------------------------/
E/----------------------/-------------------------------/

e/--------------12-11---/--------------------------------/
b/-12-11-9----9------12-/-12-11-9---9--------------------/
g/---------11-----------/---------11--11-9-8-9-8---------/
D/----------------------/------------------------11-9-8--/
A/----------------------/-------------------------------9/
E/----------------------/--------------------------------/


////////////////////////////////////////////////////////////////////////////
6.PROCEDIMIENTOS PARA LLEGAR A UN COMUN ACUERDO
//////////////////////////////////////////////////
INTRO:
ESTAS SON LAS NOTAS ESTOY 100% SEGURO

La,,,,,,,, Do estas son las unicas notas que tienen que hacer

  CORO:
EN EL CORO LAS NOTAS SON

Fa5 - La5 - Fa5 - Do5 - Fa5


 coro guitarra 1

ebI-12-11---------12-11-------------12-11---------12-11-------------------|
BbI-------9-9-9-9-------12-12-12-12-------9-9-9-9-------12-12-14-12-11-12-|
DbI-----------------------------------------------------------------------|
AbI-----------------------------------------------------------------------|
EbI-----------------------------------------------------------------------|

////////////////////////////////////////////////////////////////////////////
7.TRIPULACION ARAMR TOBOGANES
/////////////////////////////////////////

Intro:
P1:
e|---------------------------------3-3-3-3-3-3-3-3-1-1-1-1-1-1-1-1-|
B|-4-4-4-4-4-4-4-4-3-3-3-3-----------------------------------------|
G|-------------------------3-3-3-3---------------------------------|
D|-----------------------------------------------------------------|
A|-----------------------------------------------------------------|
E|-----------------------------------------------------------------|

P2:
e|-----------------------------------------------------------------|
B|-4-4-4-4-4-4-4-4-3-3-3-3-----------------------------------------|
G|-------------------------3-3-3-3-3-3-3-3-3-3-3-3-5-5-5-5-5-5-5-5-|
D|-----------------------------------------------------------------|
A|-----------------------------------------------------------------|
E|-----------------------------------------------------------------|

PIANO:
e|-------------|-3---3-1-----|
B|-4---4-3---3-|--------4-3--|
G|---3-----3---|---3---------|
D|-------------|-------------| X2
A|-------------|-------------|
E|-------------|-------------|

Me gustaría poderle decir
P1
Que representa la desdicha en mi
P2
Pero no puedo, no me atrevo a mentir, enséñame....me enseñas?
P1                                         P2

Arpegio:
e|---------------------------------1-|
B|-3---3---3---4---1---3---3---3-----|
G|---3---3---3---3---1---3---3---3---|
D|-----------------------------------|
A|-----------------------------------|
E|-----------------------------------|

Solo el pasado podría competir
P1
Con la belleza de una foto de ti
P2
La fantasía duraría y no tendría fin....me enseñas?
P1                          P2

Me quiero informar si piensa en mi
Re#5      La#5      Do5       La#5
Si acaso ese pensamiento es sutil
Re#5      La#5      Do5       La#5
Pero no servirá de nada, yo se que no existe
Sol5    Re#5       Do5       La#5     Re#5      La#5

Sol5    Re5-Re#5

PIANO:
e|-------------|-3---3-1-----|
B|-4---4-3---3-|--------4-3--|
G|---3-----3---|---3---------|
D|-------------|-------------| X2
A|-------------|-------------|
E|-------------|-------------|


ARPEGIO:
e|---------------------------------1-|
B|-3---3---3---4---1---3---3---3-----|
G|---3---3---3---3---1---3---3---3---|
D|-----------------------------------|
A|-----------------------------------|
E|-----------------------------------|


Feliz ocupo ser, no quiero aprender
Re#5      La#5      Do5       La#5
Es doloroso el proceso aquel
Re#5      La#5      Do5       La#5
Pero si tu no estás nada podré yo hacer
Sol5    Re#5       Do5       La#5     Re#5      La#5

Sol5    Re5-Re#5
Do5     Re#5-La#5

Solo:

Que tal si lo mejor está por venir (que tal si lo mejor)
Re#5      La#5      Do5       La#5
Que la distancia deje ya de existir (Que la distancia deje ya de existir)
Re#5      La#5      Do5       La#5
Pero eso nunca pasará, es mucho pedir
Sol5    Re#5       Do5       La#5     Re#5      La#5

Sol5    Re5-Re#5
Do5     Re#5-La#5

Alternativo:
P1:
e|-----------------------------------------------------------------|
B|-----------------------------------------------------------------|
G|-----------------------------------------------------------------|
D|---------------------------------5-5-5-5-5-5-5-5-3-3-3-3-3-3-3-3-|
A|-6-6-6-6-6-6-6-6-5-5-5-5-----------------------------------------|
E|-------------------------6-6-6-6---------------------------------|

P2:
e|-----------------------------------------------------------------|
B|-----------------------------------------------------------------|
G|-----------------------------------------------------------------|
D|-----------------------------------------------------------------|
A|-6-6-6-6-6-6-6-6-5-5-5-5-----------------------------------------|
E|-------------------------6-6-6-6-6-6-6-6-6-6-6-6-8-8-8-8-8-8-8-8-|

Do”
D|---10-|
A|---10-|
E|-8----|

////////////////////////////////////////////////////////////////////////////
8.PATHETICA
/////////////

ACORDES:> C#m5 Am Em5 Bm

KE  P2, PS AKI DEJANDOLES LA ROLA DE PATHETICA
ESTA UN 99% EXACTA, PORKE LO ULTIMO ME FALLO

AHÍ LES VA PUES:

AFINACION: BEMOL (UN TONO ABAJO)

INTRO: PARTE 1
E|--------------------12-12-11-11-11-9-9-9-------|
B|----9-9-9--10-10-10----------------------12-12-|
G|-----------------------------------------------|
D|-----------------------------------------------|
A|-----------------------------------------------|
E|-----------------------------------------------|

E|--------------------12-12-14-14-14-12-12-12-11-11-|
B|----9-9-9-10-10-10--------------------------------|
G|--------------------------------------------------|
D|--------------------------------------------------|
A|--------------------------------------------------|
E|--------------------------------------------------| x2

PARTE 2
E|---------------------------------16------16--------|
B|---------12-------12-------12-14----12-14----12-14-|
G|---------------------------------------------------|
D|---13-14----13-14----13-14-------------------------|
A|---------------------------------------------------|
E|---------------------------------------------------|


E|----16--12----14--11---------|
B|-----------12--------12------|
G|-----------------------------|
D|-----------------------------|
A|-----------------------------|
E|-----------------------------|

E|--------------------------------16-------16---------|
B|--------12-------12-------12-14----12-14----12-14---|
G|----------------------------------------------------|
D|---13-14----13-14----13-14--------------------------|
A|----------------------------------------------------|
E|----------------------------------------------------|

E|-------------------------------------------|
B|---12----9--11--8--------------------------|
G|------13-----------9-----6~----------------|
D|-------------------------6~----------------|
A|-------------------------4~----------------|
E|-------------------------------------------|

ARMONIA:
E|--------------------------------------------------|
B|--------------------------------------------------|
G|----66666666----------99999999--------------------|
D|----66666666-77777777-99999999-99999999-----------|
A|----44444444-77777777-77777777-99999999-----------|
E|-------------55555555----------77777777-----------|

VERSO, PURO BAJO, AKI ESTA EL TAB,
SINO TOKENLO EN LA LIRA

E|--------------------------------------------------|
B|--------------------------------------------------|
G|--------------------------------------------------|
D|--------------------------------------------------|
A|--44444444----------77777777----------------------|
E|-----------55555555----------77777777-------------| x2

AKI SE TOKA EN “Y SE KE YA T CANSASTE......”

PAL MUTED:
E|--------------------------------------------------|
B|--------------------------------------------------|
G|----66666666----------99999999--------------------|
D|----66666666-77777777-99999999-99999999-----------|
A|----44444444-77777777-77777777-99999999-----------|
E|-------------55555555----------77777777-----------| x2


“QUIZA NUNCA PASARÁ...”
E|-------------------|
B|-------------------|
G|-------------------|
D|--7-7-----9-9------|
A|--7-7-----9-9------|
E|--5-5-----7-7------|

“QUIZA SIEMPRE SERA IGUAL, SUGIERO NO ILUSIONAR”
E|--------------------------------------------------|
B|--------------------------------------------------|
G|--------------------------------------------9-----|
D|---7-7----9-9------------------------11--7--9-----|
A|---7-7----9-9------------------------11--7--7-----|
E|---5-5----7-7------------------------9---5--------|

EN EL CORO: “RECUERDA QUE AUNKE T VEAS PERFECTA...”

SE TOKA NOMAS LA PRIMERA PARTE DEL REQUINTO (
INTRO) Y LA ARMONIA DOS VECES

SE REPITE EL CORO Y EL BAJO

Y LUEGO DESPUES DEL SEGUNDO CORO:

E|---------------------------------|
B|---------------------------------|
G|---------------------------------|
D|---7~----9~----9~---7~---9~------|
A|---7~----9~----9~---7~---9~------|
E|---5~----7~---11~---5~---7~------|



Y LUEGO EL INTERLUDE ES ASÍ:

E|----------------------------------------------|
B|----------------------------------------------|
G|--6--8--9--8--6--8---9--11-9--8--6------------|
D|--x--x--x--x--x—-x---x--x--x--x--x------------|
A|--4--6--7--6--4--6---7--9--7--6--4------------|
E|----------------------------------------------|

E|---------------------------------------|
B|---------------------------------------|
G|--8--9--8--6--8---9--11----------------|
D|--x--x--x--x--x---x--x-----------------|
A|--6--7--6--4--6---7--9-----------------|
E|---------------------------------------|

Y LUEGO VA EN: “TAL VEZ YA TE CANSASTE...”
PERO CON LA LIRA, NO CON EL BAJO, Y MUTEADO

PALM MUTED
E|--------------------------------------------------|
B|--------------------------------------------------|
G|--------------------------------------------------|
D|--------------------------------------------------|
A|--44444444----------77777777----------------------|
E|-----------55555555----------77777777-------------| x2


E|--------------------|
B|--------------------|
G|---8--8--8--8-------|
D|---8--8--8--8-------|
A|---6--6--6--6-------|
E|--------------------|

Y PARA FIN SE TOKA TODO EL REKINTO (INTRO) COMPLETO
Y DESPUES VA ESTO EN:
“DESEAS MUY FUERTE KE YA SEA MAÑANA..”

E|--------------------------------------------------|
B|--9-10--9-10--9-10--9-10--9-10--9-10--9-10--9-10--|
G|--------------------------------------------------|
D|--------------------------------------------------|
A|--------------------------------------------------|
E|--------------------------------------------------|

“DESEAS MUY FUERTE KE YA SEA MAÑANA...”

E|------12-14--12-14--12-14--12-14--12-14--12-14----|
B|--------------------------------------------------|
G|--------------------------------------------------|
D|--------------------------------------------------|
A|--------------------------------------------------|
E|--------------------------------------------------|

PARA FIN: “DESEAS MUY FUERTE KE YA SEA MAÑANA...”
VA MUY RAPIDO, Y ES ALGO COMPLICADO
USTEDES BUSKENLE EL TIEMPO

E|----12r14—12h14—12rh14--14—16-16---14-16—17-16-14-|
B|----12----12-----12-----12—12-12------------------|
G|--------------------------------------------------|
D|--------------------------------------------------|
A|--------------------------------------------------|
E|--------------------------------------------------|

////////////////////////////////////////////////////////////////////////////
9.LOS MALAVENTURADOS NO LLORAN
/////////////////////////////////


Intro (Arturo)
E|-------------------------------11-----------------|
B|--0----------------------------12-----------------|
G|--2--------------1------------ 13-----------------|
D|--2--------------2-------------13-----------------|
A|--0--------------2-------------11-----------------|
E|--------------------------------------------------|

E|----------------------------------------------------|
B|--5---------------5----------4--------------4-------|
G|-------6--------------------------4-----------------|
D|-------------6-------------------------4------------|
A|----------------------------------------------------|
E|----------------------------------------------------|

E|----------------------------------------------------|
B|----------------------------------------------------|
G|-------------------------------------9--------------|
D|----------6------------------------------9----------|
A|------7---------7--------------9------------9-------|
E|--5-----------------7-------7-----------------------|

E|----4---------------------------------------------|
B|----4--------5------------5-----------------------|
G|----4------------6--------------------------------|
D|----6----------------6----------------------------|
A|----6---------------------------------------------|
E|----4---------------------------------------------|

E|-----------------------------------5--------------------------------------|
B|---4---------------4-------------------5--------------------9-------------|
G|--------4-----------------------------------6-------------------9---------|
D|--------------4------------------------------------------9----------9-----|
A|-------------------------------7---------------------7--------------------|
E|---------------------------5----------------------------------------------|

E|----4---------------------------------------------------------|
B|----4--------5------------5--------4--------------4-----------|
G|----4------------6----------------------4---------------------|
D|----6----------------6------------------------4---------------|
A|----6---------------------------------------------------------|
E|----4---------------------------------------------------------|

preCoro/coro (Arturo & pepe) (dos veces
E|--------------------------------------------------------------------------|
B|--------------------------------------------------------------------------|
G|-----------------------------------------9--9--9---9---9--9--9--9--9------|
D|--7---7---7---7---7---7---7---7--7-------9--9--9---9---9--9--9--9--9------|
A|--7---7---7---7---7---7---7---7--7-------7--7--7---7---7--7--7--7--7------|
E|--5---5---5---5---5---5---5---5--5----------------------------------------|

E|---------------------------------------------------------------------|
B|---------------------------------------------------------------------|
G|---------------------------------6--6--6--6--6--6--6--6--6-----------|
D|---6--6--6--6--6--6--6--6--6-----6--6--6--6--6--6--6--6--6-----------|
A|---6--6--6--6--6--6--6--6--6-----4--4--4--4--4--4--4--4--4-----------|
E|---4--4--4--4--4--4--4--4--4-----------------------------------------|

E|---------------------------0----|
B|---------------------------2----|
G|--4----4--4--4--4--4-------2----|   Se repite 2 veces
D|--4----4--4--4--4--4-------2----|
A|--2----2--2--2--2--2-------0----|
E|--------------------------------|


Se repite el intro y El coro.

Me deberia de acordar.....

E|------------------------------------------------------------------|
B|------------------------------------------------------------------|
G|------------------------------------------------------------------|
D|------------7-------------7----7--7--7--------7--7--7--------7----|
A|------------7-------------7----7--7--7--------7--7--7--------7----|
E|---5---5---5----5---5---5----5--5--5----5---5--5--5----5-----5----|

E|---------------------------------------------------------------------|
B|---------------------------------------------------------------------|
G|---------------------------------------------------------------------|
D|--------2--------------2---2----2--------2---2--2-------2---2--2-----|
A|--------2--------------2---2----2--------2---2--2-------2---2--2-----|
E|--0--0--0----0---0----0---0----0---0----0--0--0---0---0--0---0-------|

E|---------------------------------------------------------------------|
B|---------------------------------------------------------------------|
G|---------------------------------------------------------------------|
D|-----------4-----------4---4---4--------4---4---4------4--4--4-------|
A|-----------4-----------4---4---4--------4---4---4------4--4--4-------|
E|--2---2---2---2---2---2---2---2---2---2---2---2---2--2--2--2---------|

E|-------------------------------------------------------------------|
B|-------------------------------------------------------------------|
G|-------------------------------------------------------------------|
D|----------9-----------9---9---9-------9-----9--9--9--------9--9--9-|
A|----------9-----------9---9---9-------9-----9--9--9--------9--9--9-|
E|--7---7--7---7---7---7---7---7---7---7----7--7--7----7-----7--7--7-|


E|-------------------------------------------------------------------|
B|-------------------------------------------------------------------|
G|-------------------------------------------------------------------|
D|-----------11--------11--11-----9-----------9---9--9------9--9--9--|
A|-----------11--------11--11-----9-----------9---9--9------9--9--9--|
E|-9----9----9--9--9---9---9------7------7---7---7--7---7---7--7--7--|

Solo (pepe) x2

E|------------------------------------------------------------------|
B|------------------------------------------------------------------|
G|------------------------------------------------------------------|
D|----------6-----7----9-------13------11----13---14---13---14---13-|
A|-0--4----7--------------------------------------------------------|
E|------------------------------------------------------------------|

"Se que esta en algun lugar mejor donde no hay abuso fuera de este mundo" (sin guitarra)


"Quiero encontrar el medio para yo...."
E|-------------------------------------------------------|
B|-------------------------------------------------------|
G|-------------------------------------------------------|
D|---------------------------------2--2--2--2--2--2------|
A|--7---7---7---7---7--7---7-------2--2--2--2--2--2------|
E|--5---5---5---5---5--5---5-------0--0--0--0--0--0------|

E|-------------------------------------------------------------|
B|-------------------------------------------------------------|
G|-------------------------------------------------------------|
D|----------------------------6--6--6--6--6--6--6--------------|
A|--6--6--6--6--6--6--6--6----4--4--4--4--4--4--4--------------|
E|--4--4--4--4--4--4--4--4-------------------------------------|

Coro Final
(es el mismo del principio)

...mi vida desvanece mas... cuando termina esa frase empieza esto:

E|--------------------------------------------------------------------------|
B|--------------------------------------------------------------------------|
G|--------------------------------------------------------------------------|
D|------------7-------------7----7--7----------7--7--7--------7--7--7-------|
A|------------7-------------7----7--7----------7--7--7--------7--7--7-------|
E|---5---5---5----5---5---5----5--5----5-----5--5--5----5---5--5--5---------|

E|------------------------------------------|
B|------------------------------------------|
G|------------------------------------------|
D|--------2--------------2---2----2---------|
A|--------2--------------2---2----2---------|
E|---0--0--0----0---0----0---0----0---------|


////////////////////////////////////////////////////////////////////////////
10.TUS PALABRAS PUNZOCORTANTES
////////////////////////////////

Espero que mi apoyo sea de algo util...

Fa#
Yo
              Re#m
Inconsolable estoy
             Do#
Me invade soledad
  Si        Do#
Estoy mejor.

Fa#
Tú
             Re#m
Haz aprendido ya
            Do#
Poder disimular
     Si    Do#
Al llorar.

Fa#
Yo
              Re#m
He descubierto ya
                 Do#
La manera de expresar
     Si       Do#
Sin titubear.

Fa#
Y aquí
          Re#m
Tengo para ti
              Do#
Seis palabras
              Si    Do#
Sin ti vuelvo a ser yo.

Fa#   Re#m
Y hoy
          Do#         Si
Me siento con tanta razón
        La#m          Si
Y tengo toda la intención
      Do#
De herir.
     Fa#  Re#m
Como tu
          Do#       Si
Con tus palabras mágicas
               La#m       Si
Lastiman y vuelven a golpear
     Do#
Y a mí me agrada.

........

Fa#
No
                Re#m
No veas mis ojos no
              Do#
No quiero revelar
         Si  Do#
Mis secretos.

  Fa#
Y no
            Re#m
Ocupo tu piedad
              Do#
Ni la de los demás
       Si     Do#
Solo algo más.

Fa#   Re#m
Y hoy
          Do#         Si
Me siento con tanta razón
        La#m          Si
Y tengo toda la intención
    Do#
De herir
     Fa#  Re#m
Como tu
          Do#       Si
Con tus palabras mágicas
              La#m        Si
Lastiman y vuelven a golpear
     Do#
Y a mí me agrada.

Fa#     Re#m
Y es verdad
           Do#     Si
Me quieres siempre mal
             La#m    Si     Do#
Me tratas con la punta del pié

En cambio
Fa#  Re#m
Yo jamás
        Do#  Si
Tuve oportunidad
        La#m     Si   Do#
De comprobar que tu y yo
      Fa#
Perdición.
////////////////////////////////////////////////////////////////////////////
11.ATRACTIVO ENCONTRAMOS EN LO MAS REPUGNANTE
///////////////////////////////////////////////

LA GUITARRA DEBE DE ESTAR AFINADA EN BEMOL A
FUERZA

INTRO GRT 1
Eb----------------------------------|  |
Bb----------------------------------|  |
Gb---12---11---12-------------------|  |
Db-9----9----9----12-9-9-12-9-12-14-|x4|
Ab----------------------------------|  |
Eb----------------------------------|  |

    (no me se muy bien cuantos rasgeos son asi que le tanteo)
Eb----------------------------------------------|
Bb----------------------------------------------|
Gb----------------------------------------------|
Db-9-9-9-9--8--5-5-5-5-5--2-2-2-2-2--7-7-7-7-7--|x2
Ab-9-9-9-9--8--5-5-5-5-5--2-2-2-2-2--7-7-7-7-7--|
Eb-7-7-7-7--6--3-3-3-3-3--0-0-0-0-0--5-5-5-5-5--|

YO TE ENCUENTRO TAN BELLA Y TAN IREAL
QUE PREPARO MI SER PARA UN RITUAL.......
(aqui es un arreglo que va asi)

Eb-7----10---11-12----11-12-14-12-11--7--6-7--11-12-11----|
Bb-----------------------------------------------------12-|
Gb--------------------------------------------------------|
Db--------------------------------------------------------|
Ab--------------------------------------------------------|
Eb--------------------------------------------------------|

TU MIRADA PROFUNDA Y FRIA ESQUIVE PARA EVITAR EN PIEDRA
TRANSFORMARME..

Eb------------------------------------------------------------|
Bb------------------------------------------------------------|
Gb------------------------------------------------------------|
Db------------------------------------------------------------|
Ab-9-9-9-9-9-9-9--5-5-5-5-5-5-5--2-2-2-2-2-2-2-2-2-2-2-2-2-2--|
Eb-7-7-7-7-7-7-7--3-3-3-3-3-3-3--0-0-0-0-0-0-0-0-0-0-0-0-0-0--|

(luego sigue un intermedio acompañado del bajo se los pongo pero
 no estoy muy seguro)

Eb--------------------------------------|
Bb---10-8-7---10-8-7--------------------|
Gb-7--------7----------6------------4---|
Db-------------------7---9-7--4-5-5-----|
Ab--------------------------------------|
Eb--------------------------------------|

Gb---------------------------------|
Db---------------------------------|
Ab---------------------------------|
Eb-3--0--2--3-5--------------------|


(coro)
EL POETA SE VA EL POETA SE VA..........

      |esto lo pude
       hacer otra gtr|   |              |
Eb-----15-14--------------15-14---------------------------|
Bb-----------14-15-12-----------14-15-12------------------|
Gb--------------------------------------------------------|
Db-5-5----------------7-7----------------9-9-5-5-7-7--7-7-|
Ab-5-5----------------7-7----------------9-9-5-5-7-7--7-7-|
Eb-3-3----------------5-5----------------7-7-3-3-5-5--5-5-|

       GUITARRA 1
Eb------------------------------------|
Bb------------------------------------|
Gb------------------------------------|
Db-5-5-------------7-7----------------|
Ab-5-5-------------7-7----------------|
Eb-3-3-------------5-5----------------|


Eb-------------------------------------|
Bb-------------------------------------|
Gb-------------------------------------|
Db-9-9-9-9-9-9-9-5-5-7-7---------------|
Ab-9-9-9-9-9-9-9-5-5-7-7---------------|
Eb-7-7-7-7-7-7-7-3-3-5-5---------------|

     GUITARRA 2

Eb------15-14-----------15-14-----------|
Bb-----------14-15-12--------14-15-12---|
Gb--------------------------------------|
Db--------------------------------------|
Ab--------------------------------------|
Eb--------------------------------------|

Eb-------------------------------------|
Bb-------------------------------------|
Gb----------------------------------16-|
Db-12-12-11-12-14-12-11-12-14-12-11----|
Ab-------------------------------------|
Eb-------------------------------------|


(regresa al intro)

Eb-----------------------------------|
Bb---12---11---12--------------------|
Gb-9----9----9----12-9-9-12-9-12-14--|
Db-----------------------------------|x4
Ab-----------------------------------|
Eb-----------------------------------|

Eb----------------------------------------------------|
Bb----------------------------------------------------|
Gb----------------------------------------------------|x2
Db-9-9-9-9--8--5-5-5-5-5-5-5--2-2-2-2--7-7-7-7-7-7-7--|
Ab-9-9-9-9--8--5-5-5-5-5-5-5--2-2-2-2--7-7-7-7-7-7-7--|
Eb-7-7-7-7--6--3-3-3-3-3-3-3--0-0-0-0--5-5-5-5-5-5-5--|

EL TIEMPO SE COME NUESTRAS VIDAS.......

Eb-----------------------------------------------------------|
Bb-----------------------------------------------------------|
Gb-----------------------------------------------------------|
Db-----------------------------------------------------------|x4
Ab-9-9-9-9-9-9-9--5-5-5-5-5-5-5--2-2-2-2-2-2-2-2-2-2-2-2-2-2-|
Eb-7-7-7-7-7-7-7--3-3-3-3-3-3-3--0-0-0-0-0-0-0-0-0-0-0-0-0-0-|

      (junto con el bajo)
Eb-------------------------------------|
Bb---10-8-7---10-8-7-------------------|
Gb-7--------7----------6------------4--|
Db-------------------7---9-7--4-5-5----|
Ab-------------------------------------|
Eb-------------------------------------|


(despues sigue el coro de nuevo igual 2 veces mas y luego hay un
 cambio)

Eb-------------------------------|
Bb------3---3-5---3-5-3-5-7-5-3--|
Gb-4-----------------------------|
Db-------------------------------|
Ab-------------------------------|
Eb-------------------------------|

////////////////////////////////////////////////////////////////////////////
12.¡AH PERO COMO VENDO CASSETTES!
//////////////////////////////////

VAN 2 GUITARRAS
  INTRO   "fantorche...."
guitarra 1
e------------|---------------------------|
B------------|---------------------------|
G------------|---------------------------|
D--/8---/7---|---6/7--7-----7-7-7-7-7-7--|
A--/8---/7---|---6/7--7-----7-7-7-7-7-7--|
E--/8---/7---|---6/7--7-----7-7-7-7-7-7--|


ESTO VA CUANDO PEPE EMPIEZA A CANTAR:

guitarra 2
e-------------------------------|
b-------------------------------|
g--7-7-7--9-9-9-----------------|
d--7-7-7--9-9-9--9-9-9--5-5-5---|X8
a--5-5-5--7-7-7--9-9-9--5-5-5---|
e----------------7-7-7--3-3-3---|

ESTO VA ACOMPAÑANDO DE LA GUITARRA 2

guitarra 1

e/10-/10-/10-/10-/10--/13-13-|-/10-/10-/10-/10-/10--------------|
b----------------------------|---------------------6/7/8-8-8----|
g----------------------------|------------------------------10-7|
d----------------------------|----------------------------------|X2
a----------------------------|----------------------------------|
e----------------------------|----------------------------------|

AQUI CAMBIA  "NO VOY A DEJAR QUE ME UNDAS JAMAS" PERO LA GUITARRA
2 SIGUE IGUAL

e-8/9/10-8/9/10-10-  ---------|
b------------------  ---------|
g------------------  -10-7----|
d------------------x3---------|X2
a------------------  ---------|
e------------------  ---------|

LUEGO VUELVE HACER LO MISMO QUE AL PRINCIPIO PERO SOLO UNA VEZ


e/10-/10-/10-/10-/10--/13-13-|-/10-/10-/10-/10-/10--------------|
b----------------------------|---------------------6/7/8-8-8----|
g----------------------------|------------------------------10-7|
d----------------------------|----------------------------------|X2
a----------------------------|----------------------------------|
e----------------------------|----------------------------------|

PUENTE

guitarra 2
e-----------------------------------|
b-----------------------------------|
g-----------------------------------|
d--8/---8-8/10-10---10-10-10-10-10--|
a--8/---8-8/10-10---10-10-10-10-10--|
e--6/---6-6/9--9----9--9--9--9--9---|

CORO  "MIRA TODO EL BIEN QUE ME HAS HECHO..."

AMBAS GUITARRAS

e-----------------------|
b-----------------------|
g-------5-5-------3-3---|
d--3-3--5-5--5-5--3-3---|X3
a--3-3--3-3--5-5--1-1---|
e--1-1-------3-3--------|


PUENTE

guitarra 2
e-----------------------------------|
b-----------------------------------|
g-----------------------------------|
d--8/---8-8/10-10---10-10-10-10-10--|
a--8/---8-8/10-10---10-10-10-10-10--|
e--6/---6-6/9--9----9--9--9--9--9---|

AQUI VUELVE AL VERSO IGUAL QUE AL PRINCIPIO

guitarra 2
e-------------------------------|
b-------------------------------|
g--7-7-7--9-9-9-----------------|
d--7-7-7--9-9-9--9-9-9--5-5-5---|X4
a--5-5-5--7-7-7--9-9-9--5-5-5---|
e----------------7-7-7--3-3-3---|

guitarra 1

e/10-/10-/10-/10-/10--/13-13-|-/10-/10-/10-/10-/10--------------|
b----------------------------|---------------------6/7/8-8-8----|
g----------------------------|------------------------------10-7|
d----------------------------|----------------------------------|X2
a----------------------------|----------------------------------|
e----------------------------|----------------------------------|


Y LUEGO EL PUENTE
guitarra 2
e-----------------------------------|
b-----------------------------------|
g-----------------------------------|
d--8/---8-8/10-10---10-10-10-10-10--|
a--8/---8-8/10-10---10-10-10-10-10--|
e--6/---6-6/9--9----9--9--9--9--9---|

CORO:"MIRA TODO EL BIEN QUE ME HAS HECHO..."

AMBAS GUITARRAS

e-----------------------|
b-----------------------|
g-------5-5-------3-3---|
d--3-3--5-5--5-5--3-3---|X3
a--3-3--3-3--5-5--1-1---|
e--1-1-------3-3--------|

Y LUEGO SIGUE DE NUEVO EL PUENTE,DESPUES UN INTERMEDIO CON EL
BAJO
e-----------------------------------|
b-----------------------------------|
g-----------------------------------|
d--8/---8-8/10-10---10-10-10-10-10--|
a--8/---8-8/10-10---10-10-10-10-10--|
e--6/---6-6/9--9----9--9--9--9--9---|


DESPUES:

guitarra 2
e-------------------------------|
b-------------------------------|
g--7-7-7--9-9-9-----------------|
d--7-7-7--9-9-9--9-9-9--5-5-5---|X8
a--5-5-5--7-7-7--9-9-9--5-5-5---|
e----------------7-7-7--3-3-3---|


guitarra 1

e/10-/10-/10-/10-/10--/13-13-|-/10-/10-/10-/10-/10--------------|
b----------------------------|---------------------6/7/8-8-8----|
g----------------------------|------------------------------10-7|
d----------------------------|----------------------------------|X2
a----------------------------|----------------------------------|
e----------------------------|----------------------------------|
Добавлено: 24.11.2013
Другие материалы по этой песне:
  • Аккорды и текст

Страница создана 24.11.2013
http://primanota.ru/panda/amantes-sunt-amentes-chords.htm
Привет, Гость.
Предлагаем пройти революционный курс по гитаре.
Подарок от PrimaNota.Ru, забирай!