PrimaNota.ru - самый крупный в мире бесплатный архив песенных текстов, аккордов, табулатур и нот


Panda - La Revancha Del Principe Charro - таба, видео

Регистрация Запомнить меня
Войти через:  Facebook Google Twitter Vk Yandex Mail.ru

Panda - La Revancha Del Principe Charro - таба, видео

Печатать
Просмотров: 71
Уроки эстрадного вокала в Санкт-Петербурге
                   La Revancha Del Principe Charro-Panda

1.-Cristina
2.-Claro Que No
3.-Hola!
4.-El Chango De Los Dos Platanos
5.-Corazón De Un Cuneto Roto
6.-Doble Gracias
7.-Quisiera No Pensar
8.-Ya No Jalaba
9.-Cortame Con Unas Tijeras...
10.-Señor Payaso
11.-Ando Pedo Y Ella Esta Aqui
12.-Ilasha
13.-Mala Suerte
14.-Amiguito
15.-Maracas
----------------------------------------------------------------------------

1.-Cristina

Standard Tuning (EADGBe)

Guitarra 1 (Ongi)

Guitarra 2 (Pepe)

Guitarra 1

Intro
eI--------------|
BI--------------|
GI-4-3---4-3----|
DI-----4-----4--|
AI--------------|
EI--------------|

Intro

Guitarra 1

eI-------------------------|
BI-------------------------|
GI-4-3---4-3---------------|
DI-----4-----4-4-3-4-6-4-3-| x4
AI-------------------------|
EI-------------------------|

Intro

Guitarra 2

eI------------------------------------|
BI------------------------------------|
GI----------44444444-6666666666666666-|
DI-44444444 44444444-6666666666666666-|
AI-44444444-22222222-4444444444444444-|
EI-22222222---------------------------|

Verso

Bajeo

Te veo en la tele
Estas como quieres
Mas nunca yo sé
Que jamás serás mía



Yo sueño contigo Yo quiero contigo

Guitarra 1

eI----------------------------------------------------|
BI----------------------------------------------------|
GI-4-3---4-3---4-3-4-6-4-3--4-3---4-3---4-3-4-6-4-3---|
DI-----4-----4-----------------4-----4-------------4~-|
AI----------------------------------------------------|
EI----------------------------------------------------|


Te prometo que con solo una oportunidad
Iremos hasta el mas haya

Bridge

Guitarra 1

eI-------------------------------------------------------------------------|
BI-------------------------------------------------------------------------|
GI--12------9-------5-------7-------12------7--9-------11------12----14----|
DI--x-(X14)-x-(x16)-x-(x16)-x-(x16)-x-(x14)-x--x-(x16)-x-(x8)-x-(x8)-x-(x8)|
AI--10------7-------3-------5-------10------5--7-------9-------10----12----|
EI-------------------------------------------------------------------------|


Pero solo va a pasar
Como tu no hay otra igual

Coro

Guitarra 1 Y 2

eI-----------------------------------------|
BI-----------------------------------------|
GI------66666-4444-66666-66--4444-66666-66-|
DI-4444-66666-4444-66666-66--4444-66666-66-| (x2) 
AI-4444-44444-2222-44444-44--2222-44444-44-|
EI-2222------------------------------------|

Yaaaaaaa !
Yaaaaaaa !
Yaaaaaaa !
Yaaaaaaa !

Intro

Guitarra 1

eI-------------------------|
BI-------------------------|
GI-4-3---4-3---------------|
DI-----4-----4-4-3-4-6-4-3-| x4
AI-------------------------|
EI-------------------------|

Guitarra 2

eI------------------------------------|
BI------------------------------------|
GI----------44444444-6666666666666666-|
DI-44444444 44444444-6666666666666666-|
AI-44444444-22222222-4444444444444444-|
EI-22222222---------------------------|

Verso

Bajeo

Siempre que te veo
Me pongo bien fierro
Y solo suspiro
Hasta cuando te veo

Te juro Que nadie podrá

Guitarra 1

eI----------------------------------------------------|
BI----------------------------------------------------|
GI-4-3---4-3---4-3-4-6-4-3-4-3---4-3---4-3-4-6-4-3----|
DI-----4-----4-----------------4-----4-------------4~-|
AI----------------------------------------------------|
EI----------------------------------------------------|

Coro

Guitarra 1 Y 2

eI-----------------------------------------|
BI-----------------------------------------|
GI------66666-4444-66666-66--4444-66666-66-|
DI-4444-66666-4444-66666-66--4444-66666-66-| (x2) 
AI-4444-44444-2222-44444-44--2222-44444-44-|
EI-2222------------------------------------|

Bridge

Guitarra 1

eI-------------------------------------------------------------------------|
BI-------------------------------------------------------------------------|
GI--12------9-------5-------7-------12------7--9-------11------12----14----|
DI--x-(X14)-x-(x16)-x-(x16)-x-(x16)-x-(x14)-x--x-(x16)-x-(x8)-x-(x8)-x-(x8)|
AI--10------7-------3-------5-------10------5--7-------9-------10----12----|
EI-------------------------------------------------------------------------|

Coro

Guitarra 1 Y 2

eI-----------------------------------------|
BI-----------------------------------------|
GI------66666-4444-66666-66--4444-66666-66-|
DI-4444-66666-4444-66666-66--4444-66666-66-| (x2) 
AI-4444-44444-2222-44444-44--2222-44444-44-|
EI-2222------------------------------------|

Outro

Guitarra 1
eI-----------------|
BI-----------------|
GI-4-3---4-3-------|
DI----4-----4-4/0--|
AI-----------------|

----------------------------------------------------------------------------

2.-Claro Que No

intro
Gtr 1
e|-9-8-6---------------9-8-6--------------9-8-6---------------------------------|
b|-------9-7-6-7-6-----------9-7-6-7-6----------9-7-6-7-6-----6---6-------------|
g|-----------------8-6-----------------8------------------8-6---8---8-6---8---6-| 
d|------------------------------------------------------------------------------|
a|------------------------------------------------------------------------------|
d|------------------------------------------------------------------------------|
Gtr 2
e|-------------| |---------------------|
b|-------------| |---------------------|
g|-6-----------| |-6666-8888-----------|x3 
d|-6-4444-6666-| |-6666-8888-4444-6666-|
a|-4-4444-6666-| |-4444-6666-4444-6666-|
d|---2222-4444-| |-----------2222-4444-|

claro ke no no puede ser...
Gtr 1                                 Gtr 2 
e|---------------------------------| |----------|
b|---------------------------------| |----------|
g|-6xxxxxx-8xxxxxx-----------------| |----------|
d|-6xxxxxx-8xxxxxx-4xxxxxx-6xxxxxx-| |----------|
a|-4xxxxxx-6xxxxxx-4xxxxxx-6xxxxxx-| |-4-6-4----|
d|-----------------2xxxxxx-4xxxxxx-| |-------7--|

 Tu no le creas a ese wey...
 Gtr 1                      Gtr 2                      
e|---------------------| |---------------------|   
b|---------------------| |---------------------|   
g|-6666----------------| |-6666-8888-----------|    
d|-6666-8888-4444-6666-| |-6666-8888-4444-6666-|    
a|-4444-8888-4444-6666-| |-4444-6666-4444-6666-|    
d|------6666-2222-4444-| |-----------2222-4444-|    

El te mintio...
 Gtr 1
e|-------4------------4------------4------------4-----|
b|----------------------------------------------------|
g|-----6---6--------6---6--------6---6--------6---6---| 
d|---6-------6----6-------6----6-------6----6-------6-|
a|-4------------4------------4------------4-----------|
d|----------------------------------------------------|
 Gtr 2
e|-----------------------------------------------------------------------------|
b|-----------------------------------------------------------------------------|
g|-66666666--------------------------------------------------------------------| 
d|-66666666-66666666-8888-4444-88888888-4444-6666-88888888-4444-6666-8888--4-6-|
a|-44444444-66666666-8888-4444-88888888-4444-6666-88888888-4444-6666-8888--4-6-|
d|----------44444444-6666-2222-66666666-2222-4444-66666666-2222-4444-6666--2-4-|
 
 coro
Gtr 1                      Gtr 2                      
e|----------------------| |----------------------|   
b|----------------------| |----------------------|   
g|-6666-----------------| |-6666-8888------------|    
d|-6666-8888-4444-6-6-6-| |-6666-8888-4444-6-6-6-|    
a|-4444-8888-4444-6-6-6-| |-4444-6666-4444-6-6-6-|    
d|------6666-2222-4-4-4-| |-----------2222-4-4-4-|  

Gtr 1
e|-9-8-6---------------9-8-6--------------9-8-6---------------------------------|
b|-------9-7-6-7-6-----------9-7-6-7-6----------9-7-6-7-6-----6---6-------------|
g|-----------------8-6-----------------8------------------8-6---8---8-6---8---6-| 
d|------------------------------------------------------------------------------|
a|------------------------------------------------------------------------------|
d|------------------------------------------------------------------------------|
Gtr 2
e|---------------------|
b|---------------------|
g|-6666-8888-----------|x4 
d|-6666-8888-4444-6666-|
a|-4444-6666-4444-6666-|
d|-----------2222-4444-|
 
 Te dijo cosas ke no son verdad...
Gtr 1                                 Gtr 2 
e|---------------------------------| |----------|
b|---------------------------------| |----------|
g|-6xxxxxx-8xxxxxx-----------------| |----------|
d|-6xxxxxx-8xxxxxx-4xxxxxx-6xxxxxx-| |----------|
a|-4xxxxxx-6xxxxxx-4xxxxxx-6xxxxxx-| |-4-6-4----|
d|-----------------2xxxxxx-4xxxxxx-| |-------7--|

El te mintio...
 Gtr 1
e|-------4------------4------------4------------4-----|
b|----------------------------------------------------|
g|-----6---6--------6---6--------6---6--------6---6---| 
d|---6-------6----6-------6----6-------6----6-------6-|
a|-4------------4------------4------------4-----------|
d|----------------------------------------------------|
 Gtr 2
e|------------------------------------------------------------------------|
b|------------------------------------------------------------------------|
g|-66666666---------------------------------------------------------------| 
d|-66666666-66666666-8888-4444-88888888-4444-6666-88888888-4444-6666-8888-|
a|-44444444-66666666-8888-4444-88888888-4444-6666-88888888-4444-6666-8888-|
d|----------44444444-6666-2222-66666666-2222-4444-66666666-2222-4444-6666-|


 Terminando tocan esto
e|-----------------|
b|-----------------|
g|---------------6-| 
d|-3-------------6-|
a|---6-4---4-----4-|
d|-------6---4-----|
pm . . . . . . 

coro

coro
Gtr 1                      Gtr 2                      
e|----------------------| |----------------------|   
b|----------------------| |----------------------|   
g|-6666-----------------| |-6666-8888------------|    
d|-6666-8888-4444-6-6-6-| |-6666-8888-4444-6-6-6-|    
a|-4444-8888-4444-6-6-6-| |-4444-6666-4444-6-6-6-|    
d|------6666-2222-4-4-4-| |-----------2222-4-4-4-|  

 outro
 Gtr 1
e|-------------------9-6-9-------------|
b|-9---7-5--9-7-5-----------9--7--5--7-|
g|-------------------------------------| se repite... 
d|-------------------------------------|
a|-------------------------------------|
d|-------------------------------------|

e|---------------------------------|
b|---------------------------------|
g|--------------6-----6------------| 
d|-8---6-8--6---6--8--6-6-4--66-66-|
a|-8---6-8--6---4--8--4-6-4--66-66-|
d|-6---4-6--4------6----4-2--44-44-|

----------------------------------------------------------------------------

3.-Hola!

Una guitarra se encuentra
en Drop D.

Intro

Gtr 1                

eI----------------------------------
BI----------------------------------
GI-8-88--------------5-55-----------
DI-8-88-5-6-8-88-----5-55-1-3-66-88-
AI-6-66-----8-88-5-6-3-33-----66-88-
EI----------6-66--------------44-66-


Gtr1
eI----------------------------------
BI----------------------------------
GI-8-88--------------5-55-----------
DI-8-88-5-6-8-88-----5-55-1-3-66-88-
AI-6-66-----8-88-5-6-3-33-----66-88-
EI----------6-66--------------44-66-

Gtr 2
eI------12\0-----------------------33---------
BI------------555555553335555555666--66443344-
GI-8------------------------------------------
DI-8------------------------------------------
AI-6------------------------------------------
DI--------------------------------------------

 - - - - - - - - - - - - - - - - - - - - - - - 
*Toda esta frase va con el mismo ritmo de la
Gtr 2 y un arreglo pequeño de la Gtr 1.


Somos Panda !

Woop Woop

Somos 4 de Monterrey N.L
Y traemos este ritmo medio sabroson
Somos Jorge Ricardo José Luis y José
Y hacemos de nuestra vida Dios no no se

Y ahora vamos a empezar
Con el Panda a rebanar
Pa que no acabe la fiesta
Yo la voy a registrar
Y en un Loop y Loop y Loop
Que no vas a parar que no quieres parar
Por que la luna no se acaba 
Si la tienes en el alma
De la noche a la mañana 
Pa que Bailes en la cama

Somos Panda y estamos de vuelta
Para tronarte las orejas

Gtr 1
eI-------------------------------
BI-------------------------------
GI----------------33-55-77-10----
DI-----1-3^1------33-55-77-10----
AI-1-3-------3----11-33-66-88----
EI-------------0-----------------

Gtr 2
eI-----------------------------------------
BI-----------------------------------------
GI-----------------------------------------
DI-11-1-33-3-66-6-88-8-11-1-33-3-66-6-88-8-
AI-11-1-33-3-66-6-88-8-11-1-33-3-66-6-88-8-
DI-11-1-33-3-66-6-88-8-11-1-33-3-66-6-88-8-

 - - - - - - - - - - - - - - - - - - - - - - - - 

Te estoy avisando
Para que te sientas mejor
Date ya la vuelta

Te estoy recordando
Así ya nunca lo olvidaras jamás
Date ya la vuelta

Gtr 1

eI----------------------------------
BI----------------------------------
GI-8-8-8-8--------------------------
DI-8-8-8-8-8-8-8-8-10101010-6-6-8-8-
AI-6-6-6-6-8-8-8-8-10101010-6-6-8-8-
EI---------6-6-6-6-8-8-8-8--4-4-6-6-

Gtr 2

eI----------------------------------
BI----------------------------------
GI-8-8-8-8--------------------------
DI-8-8-8-8-8-8-8-8-10101010-6-6-8-8-
AI-6-6-6-6-8-8-8-8-10101010-6-6-8-8-
DI---------8-8-8-8-10101010-6-6-8-8-

 - - - - - - - - - - - - - - - - - - - - - - - - 

Gtr 1                

eI----------------------------------
BI----------------------------------
GI-8-88--------------5-55-----------
DI-8-88-5-6-8-88-----5-55-1-3-66-88-
AI-6-66-----8-88-5-6-3-33-----66-88-
EI----------6-66--------------44-66-

Gtr 2                

eI----------------------------------
BI----------------------------------
GI-8-88--------------5-55-----------
DI-8-88-----8-88-----5-55-----66-88-
AI-6-66-----8-88-----3-33-----66-88-
DI----------8-88--------------66-88-

 - - - - - - - - - - - - - - - - - - - - - - - - 
*Toda esta frase va con el mismo ritmo de la
Gtr 2 y un arreglo pequeño de la Gtr 1.
Somos Panda !

No te va a gustar 
Pero hasta en el Baño tu nos oirás
En el radio en la tele
La mercadotecnia nos mantiene

Si nos extrañaste 
Ya estamos aquí
Si no lo hiciste
Ni modo en fin

Oye Panda pásate unas viejas
Que Panda regreso para cortar cabezas

Gtr 1
eI-------------------------------
BI-------------------------------
GI----------------33-55-77-10----
DI-----1-3^1------33-55-77-10----
AI-1-3-------3----11-33-66-88----
EI-------------0-----------------

Gtr 2
eI-----------------------------------------
BI-----------------------------------------
GI-----------------------------------------
DI-11-1-33-3-66-6-88-8-11-1-33-3-66-6-88-8-
AI-11-1-33-3-66-6-88-8-11-1-33-3-66-6-88-8-
DI-11-1-33-3-66-6-88-8-11-1-33-3-66-6-88-8-

 - - - - - - - - - - - - - - - - - - - - - - - - 

Te estoy avisando
Para que te sientas mejor
Date ya la vuelta

Te estoy recordando
Así ya nunca lo olvidaras jamás
Date ya la vuelta

Gtr 1

eI----------------------------------
BI----------------------------------
GI-8-8-8-8--------------------------
DI-8-8-8-8-8-8-8-8-10101010-6-6-8-8-
AI-6-6-6-6-8-8-8-8-10101010-6-6-8-8-
EI---------6-6-6-6-8-8-8-8--4-4-6-6-

Gtr 2

eI----------------------------------
BI----------------------------------
GI-8-8-8-8--------------------------
DI-8-8-8-8-8-8-8-8-10101010-6-6-8-8-
AI-6-6-6-6-8-8-8-8-10101010-6-6-8-8-
DI---------8-8-8-8-10101010-6-6-8-8-

 - - - - - - - - - - - - - - - - - - - - - - - - 

Yeeee !

Gtr 2
eI----------------------------------
BI----------------------------------
GI----------------------------------
DI-5--5-6-5-------------------------
AI----------6-8-6-5-6---------------
DI----------------------------------

Pinche Panda y Mosh Style
Oh Right

Gtr 1
eI------------11-------------11-----
BI--9-8-9-8-9----9-8-9-8-9-8----9-8-
GI----------------------------------
DI----------------------------------
AI----------------------------------
EI----------------------------------

Gtr 2
eI----------------------------------
BI----------------------------------
GI----------------------------------
DI-5--5-6-5-------------------------
AI----------6-8-6-5-6---------------
DI----------------------------------

 - - - - - - - - - - - - - - - - - - - - - - - - 

Te estoy avisando
Para que te sientas mejor
Date ya la vuelta

Te estoy recordando
Así ya nunca lo olvidaras jamás
Date ya la vuelta

Gtr 1

eI----------------------------------
BI----------------------------------
GI-8-8-8-8--------------------------
DI-8-8-8-8-8-8-8-8-10101010-6-6-8-8-
AI-6-6-6-6-8-8-8-8-10101010-6-6-8-8-
EI---------6-6-6-6-8-8-8-8--4-4-6-6-

Gtr 2

eI----------------------------------
BI----------------------------------
GI-8-8-8-8--------------------------
DI-8-8-8-8-8-8-8-8-10101010-6-6-8-8-
AI-6-6-6-6-8-8-8-8-10101010-6-6-8-8-
DI---------8-8-8-8-10101010-6-6-8-8-

----------------------------------------------------------------------------

4.-El Chango De Los Dos Platanos

Intro
e|-------------------------------
B|-------------------------------
G|---6-6-6-6-6-6-6-6-6-6-6-6-6---
D|-------------------------------
A|-------------------------------
E|-------------------------------

e|-------------------------------
B|-------------------------------
G|-6-6-6-8-8-8-10-10-10-11/10----
D|-------------------------------
A|-4-4-4-6-6-6-8--8--8---9/8----- Se toca 4 veces
E|-------------------------------

Verso

e|-------------------------------------
B|-------------------------------------
G|-------------------------------------
D|-6x-6-6x-----------------------------
A|-4x-4-4x---6x-6-6x---4x-4-4x---8--6--
E|-----------4x-4-4x---2x-2-2x---6--4--

Pero no, no lo deben de saber...
e|-------------------------------
B|-------------------------------
G|-------------------------------
D|-------------------------------
A|-4-4-4-4-4--8-8--6-6-----------
E|-2-2-2-2-2--6-6--4-4--(3 veces)

Por favor esque ellas..
e|-------------------------------
B|-------------------------------
G|-------------------------------
D|-------------------------------
A|-4-4-4-4--6-6-6-666------------
E|-2-2-2-2--4-4-4-444------------

CORO:

Yo no soy asi, mas no soy feliz....
e|-------------------------------------
B|-------------------------------------
G|-------------------------------------
D|--6-6-6-6----------------------------
A|--4-4-4-4--4-4-4-4--8-8-8-8--6-6-6-6-
E|-----------2-2-2-2--6-6-6-6--4-4-4-4-(2 veces)

Lo que yo podria pedir
e|-------------------------------
B|-------------------------------
G|-------------------------------
D|-------------------------------
A|-4x-4-4-4-4---6x-6-6-6-6-------
E|-2x-2-2-2-2---4x-4-4-4-4-------

----------------------------------------------------------------------------

5.-Corazon De Un Cuento Roto

En el intro se usan los mismos acordes del verso
 
Intro
|-11--9-9--8-8--8-9-8---11--9-9--8-8--8-------|
|---------------------------------------11----|
|---------------------------------------------|
|---------------------------------------------|
|---------------------------------------------|
|---------------------------------------------|


|-11-9-9-8-8-8-9-8-----8-8--9-9--9-8----|
|-------------------11------------------|
|---------------------------------------|
|---------------------------------------|
|---------------------------------------|
|---------------------------------------|


Estos son los acordes que se usan cuando está cantando
  G#  C#  A#  D#
|------------------|
|------------------|
|-----6-------8----|
|-6---6---8---8----|
|-6---4---8---6----|
|-4-------6--------|

Aquí es cuando canta ' oye oli dime que voy a hacer'
Y en este mismo pedazo se va la rola más rapida con estos mismos acordes
 
  G#  C# D#
|--------------|
|--------------|
|-----6---8----|
|-6---6---8----|
|-6---4---6----|
|-4------------|

Esta parte es cuando se calma la rola, cuando no lleva distorción

        G#             C#             A#            D#
|---------------------------------------------------------------|
|---------4--------------6--------------6--------------8--------|
|-----------5--------6-----6--------------7--------8-----8------|
|-----6-------6----6---------6------8-------8----8---------8----|
|---6------------4-----4----------8------------6-----6----------|
|-4-----4-----------------------6-----6-------------------------|


despues de que canta  se oye algo así
esto lo hace la guitarra 2

|-11-12-----11-12-14----|
|-------12--------------|
|-----------------------|
|-----------------------|
|-----------------------|
|-----------------------|


Con estos acordes acaba la rola

  G#  C#  A#  D#
|------------------|
|------------------|
|-----6-------8----|
|-6---6---8---8----|
|-6---4---8---6----|
|-4-------6--------|

----------------------------------------------------------------------------

6.-Doble Gracias

intro:
Gtr 1
e|------------------------------------------------------------|
b|---4-------6-4-----6--------------4------6-4----4-----------|
g|-4---6---4-------4---6--4-2-4---2---6--4------4---6--4-2-4--| 
d|------------------------------------------------------------|
a|------------------------------------------------------------|
d|------------------------------------------------------------|
Gtr 2
e|-------------------------|
b|-------------------------|
g|-------6-66--------------| 
d|-6-66--6-66--6-66--3-33--|x2
a|-6-66--4-44--6-66--3-33--|
d|-4-44--------4-44--1-11--|
 
 verso: yo no se como olvidarte...
e|----------------|
b|----------------|
g|----------6--8--| 
d|-6--3--6--6--8--|
a|-6--3--6--4--6--|
d|-4--1--4--------|

 yo en el cine te mire...
Gtr 1
e|----------------------------------------------------------------------------|                 
b|----------------------------------------------------------------------------|                 
g|-6666-8888------------6666-8888------------6666-8888------------------------|               
d|-6666-8888-6666-3333--6666-8888-6666-3333--6666-8888--66-6--66-6--33-3-33-3-|                
a|-4444-6666-6666-3333--4444-6666-6666-3333--4444-6666--66-6--66-6--33-3-33-3-|                 
d|-----------4444-1111------------4444-1111-------------44-4--44-4--11-1-11-1-|            
Gtr 2                                               pm  ..    ..    ..   ..                        
e|---------------------------------------------------------------------------|                 
b|---------------------------------------------------------------------------|                 
g|-6666-8888------------6666-8888------------6666-8888-----------------------|               
d|-6666-8888-6666-3333--6666-8888-6666-3333--6666-8888--xx-6-xx-6--xx-3-xx-3-|                
a|-4444-6666-6666-3333--4444-6666-6666-3333--4444-6666--xx-6-xx-6--xx-3-xx-3-|                 
d|-----------4444-1111------------4444-1111-------------xx-4-xx-4--xx-1-xx-1-|      
 
yo te pido por favor solo una oportunidad Gtr 1 y 2
e|--------------------|
b|--------------------|
g|-66666666--88888888-| 
d|-66666666--88888888-|
a|-44444444--66666666-|
d|--------------------|

wo wooo..              solo una oportunidad
Gtr 1 y 2
e|---------------|  |------------|
b|---------------|  |------------|
g|----x88-x66-x8-|  |-6666-xx8x8-|
d|-66-x88-x66-x8-|  |-6666-xx8x8-|
a|-66-x66-x44-x6-|  |-4444-xx6x6-|
d|-44------------|  |------------|

 verso: yo te vi al dia siguiente... 
e|----------------|
b|----------------|
g|----------6--8--| 
d|-6--3--6--6--8--|
a|-6--3--6--4--6--|
d|-4--1--4--------|

  y eres tu ke me hace ver...
Gtr 1
e|----------------------------------------------------------------------------|                 
b|----------------------------------------------------------------------------|                 
g|-6666-8888------------6666-8888------------6666-8888------------------------|               
d|-6666-8888-6666-3333--6666-8888-6666-3333--6666-8888--66-6--66-6--33-3-33-3-|                
a|-4444-6666-6666-3333--4444-6666-6666-3333--4444-6666--66-6--66-6--33-3-33-3-|                 
d|-----------4444-1111------------4444-1111-------------44-4--44-4--11-1-11-1-|            
Gtr 2                                               pm  ..    ..    ..   ..                        
e|---------------------------------------------------------------------------|                 
b|---------------------------------------------------------------------------|                 
g|-6666-8888------------6666-8888------------6666-8888-----------------------|               
d|-6666-8888-6666-3333--6666-8888-6666-3333--6666-8888--xx-6-xx-6--xx-3-xx-3-|                
a|-4444-6666-6666-3333--4444-6666-6666-3333--4444-6666--xx-6-xx-6--xx-3-xx-3-|                 
d|-----------4444-1111------------4444-1111-------------xx-4-xx-4--xx-1-xx-1-|      

 yo te pido por favor solo una oportunidad Gtr 1 y 2
e|--------------------|
b|--------------------|
g|-66666666--88888888-| 
d|-66666666--88888888-|
a|-44444444--66666666-|
d|--------------------|

wo wooo..              solo una oportunidad
Gtr 1 y 2
e|---------------|  |------------|
b|---------------|  |------------|
g|----x88-x66-x8-|  |-6666-xx8x8-|
d|-66-x88-x66-x8-|  |-6666-xx8x8-|
a|-66-x66-x44-x6-|  |-4444-xx6x6-|
d|-44------------|  |------------|

Gtr 1
e|------------------------------------------------------------|
b|---4-------6-4-----6--------------4------6-4----4-----------|
g|-4---6---4-------4---6--4-2-4---2---6--4------4---6--4-2-4--| 
d|------------------------------------------------------------|
a|------------------------------------------------------------|
d|------------------------------------------------------------|
Gtr 2
e|-------------------------|
b|-------------------------|
g|-------6-66--------------| 
d|-6-66--6-66--6-66--3-33--|x2
a|-6-66--4-44--6-66--3-33--|
d|-4-44--------4-44--1-11--|

 yo no dejo de soñarte... (es puro bajo)

 solo kiero hacerte ver...
Gtr 1
e|----------------------------------------------------------------------------|                 
b|----------------------------------------------------------------------------|                 
g|-6666-8888------------6666-8888------------6666-8888------------------------|               
d|-6666-8888-6666-3333--6666-8888-6666-3333--6666-8888--66-6--66-6--33-3-33-3-|                
a|-4444-6666-6666-3333--4444-6666-6666-3333--4444-6666--66-6--66-6--33-3-33-3-|                 
d|-----------4444-1111------------4444-1111-------------44-4--44-4--11-1-11-1-|            
Gtr 2                                               pm  ..    ..    ..   ..                        
e|---------------------------------------------------------------------------|                 
b|---------------------------------------------------------------------------|                 
g|-6666-8888------------6666-8888------------6666-8888-----------------------|               
d|-6666-8888-6666-3333--6666-8888-6666-3333--6666-8888--xx-6-xx-6--xx-3-xx-3-|                
a|-4444-6666-6666-3333--4444-6666-6666-3333--4444-6666--xx-6-xx-6--xx-3-xx-3-|                 
d|-----------4444-1111------------4444-1111-------------xx-4-xx-4--xx-1-xx-1-|      
 yo te pido por favor solo una oportunidad Gtr 1 y 2
e|--------------------|
b|--------------------|
g|-66666666--88888888-| 
d|-66666666--88888888-|
a|-44444444--66666666-|
d|--------------------|

wo wooo..              solo una oportunidad
Gtr 1 y 2
e|---------------|  |------------|
b|---------------|  |------------|
g|----x88-x66-x8-|  |-6666-xx8x8-|
d|-66-x88-x66-x8-|  |-6666-xx8x8-|
a|-66-x66-x44-x6-|  |-4444-xx6x6-|
d|-44------------|  |------------|

Gtr 1
e|------------------------------------------------------------|
b|---4-------6-4-----6--------------4------6-4----4-----------|
g|-4---6---4-------4---6--4-2-4---2---6--4------4---6--4-2-4--| 
d|------------------------------------------------------------|
a|------------------------------------------------------------|
d|------------------------------------------------------------|
Gtr 2
e|-------------------------|
b|-------------------------|
g|-------6-66--------------| 
d|-6-66--6-66--6-66--3-33--|x2
a|-6-66--4-44--6-66--3-33--|
d|-4-44--------4-44--1-11--|

 outro
e|-----|
b|-----|
g|-----|
d|--6--|
a|--6--|
d|--4--|

----------------------------------------------------------------------------

7.-Quisiera No Pensar

Intro Metalero
|----------------------------------------------------------------| 
|----------------------------------------------------------------|
|-66-99-3-4-3--66-99-3-4-3--66-99-3-4-3--66-99-3-4-3-------------|
|-66-99-3-4-3--66-99-3-4-3--66-99-3-4-3--66-99-3-4-3-------------|
|-44-77-1-2-1--44-77-1-2-1--44-77-1-2-1--44-77-1-2-1-------------|
|-----------------------------------------------------SLIDE>>>>--|
SE REPITE DOS VECES


Segundo intro ( esto es lo de violines )
|--4-----------4-------|-------4---------------------------------|
|----7-6-4-6-7---6-----|---6-7---4---7-6-7-4---------------------|
|------------------6-3-|-----------6-----------------------------|
|----------------------|-----------------------------------------|
|----------------------|-----------------------------------------|
|----------------------|-----------------------------------------|


Esto es el segundo intro en guitarra 
|----------------------------------------------------------------|
|----------------------------------------------------------------|
|--6666------------------6666-3333-------------------------------|
|--6666-6666-3333-4444---6666-3333--4444-6666--------------------|
|--4444-6666-3333-4444---4444-1111--4444-6666--------------------|
|-------4444-1111-2222--------------2222-4444--------------------|


Verso ( bajo ) ( quisiera no ..)
|----------------------------------------------------------------|
|----------------------------------------------------------------|
|--4444-------------------4444-1111------------------------------|
|-------4444-1111-2222---------------2222-4444-------------------|


Coro ( y ojala ..)
|----------------------------------------------------------------|
|----------------------------------------------------------------|
|--------------6666-3333------------6666-3333--------------------|
|--4444--6666--6666-3333-4444-6666--6666-3333--------------------|
|--4444--6666--4444-1111-4444-6666--4444-1111--------------------|
|--2222--4444------------2222-4444-------------------------------|

|----------------------------------------------------------------|
|----------------------------------------------------------------|
|--------------7-6-5-3-------------------------------------------|
|--4444--6666--7-6-5-3-44444-6-----------------------------------|
|--4444--6666--5-4-3-1-44444-6-----------------------------------|
|--2222--4444----------22222-4-----------------------------------|

Despues Segundo intro


Despues Verso
( la guitarra empieza en el verso con esto )
|----------------------------------------------------------------|
|----------------------------------------------------------------|
|--6666-----------------6666-3333--------------------------------|
|--6666-6666-3333-4444--6666-3333--4444-6666---------------------|
|--4444-6666-3333-4444--4444-1111--4444-6666---------------------|
|-------4444-1111-2222-------------2222-4444---------------------|

Despues Coro

Interlude

|-------------------------------------------------------------------|
|-------------------------------------------------------------------|
|--66-6-33-3-------------66-6-33-3--------------66-6-33-3-----------|
|--66-6-33-3-44-4-88-66--66-6-33-3--44-4-88-66--66-6-33-3-44-4-88-66|
|--44-4-11-1-44-4-88-66--44-4-11-1--44-4-88-66--44-4-11-1-44-4-88-66|
|------------22-2-66/44-------------22-2-66/44------------22-2-66/44|

|----------------------------------------------------------------|
|----------------------------------------------------------------|
|----------------------------------------------------------------|
|--5555555555----------------------------------------------------|
|--5555555555----------------------------------------------------|
|--3333333333----------------------------------------------------|
P.M----------

Despues Coro

Despues Verso por 3 
(En la segunda ves que toques el verso tocas el
intro con violines)

Despues Este Cambio 

|----------------------------------------------------------------|
|----------------------------------------------------------------|
|--6666-----------------6666-------------------------6>>>--------|
|--6666-6666-3333-4444--6666-6666-3333-4444----------6>>>--------|
|--4444-6666-3333-4444--4444-6666-3333-4444----------4>>>--------|
|-------4444-1111-2222-------4444-1111-2222----------------------|
P.M                     -------------------

----------------------------------------------------------------------------

8.-Ya No Jalaba

GUITARRA 1
Intro 
e|-----------------------------------------|
b|-----------------------------------------|
g|-----------------------------------------|
d|-4-44444444------------------------------|
a|-2-22222222-66666666-22222222-4444444444-|
E|------------44444444-00000000-2222222222-|x1
     ........ ........ ........ ........

e|-----------------------|
b|-----------------------|
g|-----------------------|
d|------------4444444444-|
a|-66666-4444-2222222222-|
E|-44444-2222------------|x3

e|--------------|
b|--------------|
g|--------------|
d|------------4-|
a|-66666-4444-2-|
E|-44444-2222---|x1

Verso 1 -Sin guitarra- 
Bass
G|-----------------------|
D|-----------------------|
A|------------2222222222-|
E|-44444-2222------------|

"Ya no te veia igual..."
e|---------|
b|---------|
g|-8--6--4-|
d|-x--x--x-|
a|-6--4--2-|
E|---------|x4

Coro
e|-------------------------------------|
b|-------------------------------------|
g|-------------------------------------|
d|-44444444----------------------------|
a|-22222222-66666666-22222222-44444444-|
E|----------44444444-00000000-22222222-|x2

Despues del Coro
e|-----------------------|
b|-----------------------|
g|-----------------------|
d|------------4444444444-|
a|-66666-4444-2222222222-|
E|-44444-2222------------|x3

e|--------------|
b|--------------|
g|--------------|
d|------------4-|
a|-66666-4444-2-|
E|-44444-2222---|x1

Verso 2 -Sin guitarra- 
Bass
G|-----------------------|
D|-----------------------|
A|------------2222222222-|
E|-44444-2222------------|

"Tratalo de aceptar y..."
e|---------|
b|---------|
g|-8--6--4-|
d|-6--4--4-|
a|-6--4--2-|
E|---------|x2

Coro
e|-------------------------------------|
b|-------------------------------------|
g|-------------------------------------|
d|-44444444----------------------------|
a|-22222222-66666666-22222222-44444444-|
E|----------44444444-00000000-22222222-|x1

e|-------------------------------------------------------|
b|-------------------------------------------------------|
g|-------------------------------------------------------|
d|-44444444----------------------------------------------|
a|-22222222-66666666-22222222-44444444-2-4-4444444444444-|
E|----------44444444-00000000-22222222-0-2-2222222222222-|x1
                                           .............

Solo
e|-------------------------------------|
b|-------------------------------------|
g|-------------------------------------|
d|-44444444----------------------------|
a|-22222222-66666666-22222222-44444444-|
E|----------44444444-00000000-22222222-|x2

e|--------------------|
b|--------------------|
g|--------------------|
d|------------4-pausa-|
a|-66666-4444-2-pausa-|
E|-44444-2222---------|x2

e|----------------|
b|----------------|
g|----------------|
d|------------4---|
a|-66666-4444-2-4-|
E|-44444-2222---2-|x1

Coro
e|-------------------------------------|
b|-------------------------------------|
g|-------------------------------------|
d|-44444444----------------------------|
a|-22222222-66666666-22222222-44444444-|
E|----------44444444-00000000-22222222-|x1

e|-------------------------------------|
b|-------------------------------------|
g|-------------------------------------|
d|-44444444----------------------------|
a|-22222222-66666666-22222222-44444444-|
E|----------44444444-00000000-22222222-|x1
                              ........
Outro
e|-------------------------------------|
b|-------------------------------------|
g|-------------------------------------|
d|-44444444----------------------------|
a|-22222222-66666666-22222222-44444444-|
E|----------44444444-00000000-22222222-|x1

e|------------------------------------|
b|------------------------------------|
g|------------------------------------|
d|-44444444---------------------------|
a|-22222222-66666666-22222222-4-2-6-9-|
E|----------44444444-00000000-2-0-4-7-|x1

----------------------------------------------------------------------------

9.-Cortame Con Unas Tijeras...

Key

| /  slide up
| \  slide down
| h  hammer-on
| p  pull-off
| ~  vibrato
| +  harmonic
| x  Mute note

Intro

00:01 - 00:30
e|---------------------------------------------------------|
B|---------------------------------------------------------|
G|---------------7-7-7-7---------5-5-5-5-------------------|
D|-5~----5-5-5-5-7-7-7-7-5-5-5-5-5-5-5-5-5-5-5-5-----------|
A|-5~----5-5-5-5-5-5-5-5-5-5-5-5-3-3-3-3-5-5-5-5-----------|
E|-3~----3-3-3-3---------3-3-3-3---------3-3-3-3-----------|

e|---------------------------------------------------------|
B|---------------------------------------------------------|
G|-7-7-7-7------5-5-7-5-4-2--------------------------------|
D|-7-7-7-7--5-5-5-5-7-5-4-2--------------------------------|
A|-5-5-5-5--5-5-3-3-5-3-2-0--------------------------------|
E|----------3-3--------------------------------------------|

e|---------------------------------------------------------|
B|---------------------------------------------------------|
G|-0-7-9-7----7--0-7-9-7----7--x4-4--x5-5------------------|
D|---------10------------10----x4-4--x5-5------------------|
A|-----------------------------x2-2--x3-3------------------|
E|---------------------------------------------------------|

e|---------------------------------------------------------|
B|---------------------------------------------------------|
G|-0-7-9-7----7--0-7-9-7----7--x4-4--x5-5------------------|
D|---------10------------10----x4-4--x5-5-5~---------------|
A|-----------------------------x2-2--x3-3-5~---------------|
E|----------------------------------------3~---------------|
(I couldn't figure the second guitar, if anyone wants to help add me to your MSN.)


Verse

00:38 - 00:47
e|---------------------------------------------------------|
B|------7---8p7------7---8p7------7---8p7----10p7---8p7----|
G|----7---7------7-7---7------7-7---7------7------7--------|
D|---------------------------------------------------------|
A|---------------------------------------------------------|
E|---------------------------------------------------------|
      .   .      . .   .      . .   .      .      .         


PreChorus

00:48 - 00:59

Guitar 1
e|---------------------------------------------------------|
B|---------------------------------------------------------|
G|-----4~--5~--7~------------------------------------------|
D|-6~--4~--5~--7~------------------------------------------|
A|-6~--2~--3~--5~------------------------------------------|
E|-4~------------------------------------------------------|

e|---------------------------------------------------------|
B|---------------------------------------------------------|
G|-----4~--5~--7~------------------------------------------|
D|-6~--4~--5~--7~------------------------------------------|
A|-6~--2~--3~--5~------------------------------------------|
E|-4~------------------------------------------------------|


Chorus

01:00 - 01:18
e|---------------------------------------------------------|
B|---------------------------------------------------------|
G|-------------------55555555-77777777---------------------|
D|-55555555-22222222-55555555-77777777---------------------|
A|-55555555-22222222-33333333-55555555---------------------|
E|-33333333-00000000---------------------------------------|

e|---------------------------------------------------------|
B|---------------------------------------------------------|
G|-------------------55555555-77-7-77-7--------------------|
D|-55555555-22222222-55555555-77-7-77-7--------------------|
A|-55555555-22222222-33333333-55-5-55-5--------------------|
E|-33333333-00000000---------------------------------------|
                              ..   ..

e|---------------------------------------------------------|
B|---------------------------------------------------------|
G|-------------------55555555-77777777---------------------|
D|-55555555-22222222-55555555-77777777---------------------|
A|-55555555-22222222-33333333-55555555---------------------|
E|-33333333-00000000---------------------------------------|

e|---------------------------------------------------------|
B|---------------------------------------------------------|
G|-------------------55555555-77-7-77-7--------------------|
D|-55555555-22222222-55555555-77-7-77-7--------------------|
A|-55555555-22222222-33333333-55-5-55-5--------------------|
E|-33333333-00000000---------------------------------------|
                              ..   ..

Repeat this part
e|---------------------------------------------------------|
B|---------------------------------------------------------|
G|-0-7-9-7----7--0-7-9-7----7--x4-4--x5-5------------------|
D|---------10------------10----x4-4--x5-5------------------|
A|-----------------------------x2-2--x3-3------------------|
E|---------------------------------------------------------|

e|---------------------------------------------------------|
B|---------------------------------------------------------|
G|-0-7-9-7----7--0-7-9-7----7--x4-4--x5-5------------------|
D|---------10------------10----x4-4--x5-5-5~---------------|
A|-----------------------------x2-2--x3-3-5~---------------|
E|----------------------------------------3~---------------|

And then the verse
e|---------------------------------------------------------|
B|------7---8p7------7---8p7------7---8p7----10p7---8p7----|
G|----7---7------7-7---7------7-7---7------7------7--------|
D|---------------------------------------------------------|
A|---------------------------------------------------------|
E|---------------------------------------------------------|
      .   .      . .   .      . .   .      .      .         


Pero tu te fuiste...
e|---------------------------------------------------------|
B|---------------------------------------------------------|
G|---------7777777-4444444-5555555-------------------------|
D|-5555555-7777777-4444444-5555555-------------------------|
A|-5555555-5555555-2222222-3333333-------------------------|
E|-3333333-------------------------------------------------|


Pero tu te fuiste...
e|---------------------------------------------------------|
B|---------------------------------------------------------|
G|----7-74-4-5---------------------------------------------|
D|-5-57-74-4-5---------------------------------------------|
A|-5-55-52-2-3---------------------------------------------|
E|-3-3-----------------------------------------------------|

El te cambio también...
e|---------------------------------------------------------|
B|---------------------------------------------------------|
G|----------44444444-55555555-77777777---------------------|
D|-66666666-44444444-55555555-77777777---------------------|
A|-66666666-22222222-33333333-55555555---------------------|
E|-44444444------------------------------------------------|x2

Play Chorus

And then this:
e|---------------------------------------------------------|
B|---------------------------------------------------------|
G|-77-777-777-7777-----------------------------------------|
D|-77-777-777-7777-----------------------------------------|
A|-55-555-555-5555-----------------------------------------|
E|---------------------------------------------------------|x4
   .. ... ... ...

e|---------------------------------------------------------|
B|---------------------------------------------------------|
G|------7~--7-----5~--5-----7~--7--5-7-5-4-2---------------|
D|-5~--57~--75~--55~--55~--57~--75-5-7-5-4-2---------------|
A|-5~--55~--55~--53~--35~--55~--55-3-5-3-2-0---------------|
E|-3~--3-----3~--3-----3~--3-----3-------------------------|

Play Chorus again

----------------------------------------------------------------------------

10.-Señor Payaso

Intro (x 5)

eI---------------------------|
BI---------------------------|
GI------------------11-9-----|
DI-99---------------9--7-----|
AI-77-66-77---66-77----------|
EI----44-55---44-55----------|


Verso (x 2)

eI----------------------------------------------------|
BI----------------------------------------------------|
GI-xx-9--xx-9-----------------------------------------|
DI-xx-9--xx-9--xx-9--xx-9--xx-11--xx-11--xx-9--xx-9---|
AI-xx-7--xx-7--xx-9--xx-9--xx-11--xx-11--xx-9--xx-9---|
EI-------------xx-7--xx-7--xx-9---xx-9---xx-7--xx-7---|

      (x 2)

eI--------------------------------------------------|
BI--------------------------------------------------|
GI-99999999-----------------------------------------|
DI-99999999-99999999---11-11-11-11-11--9999999999---|
AI-77777777-99999999---11-11-11-11-11--9999999999---|
EI----------77777777---9--9--9--9--9---7777777777---|


Estribillo (x 1)

eI---------------------------|
BI---------------------------|
GI---------------------------|
DI---777777777---999999999---|
AI---777777777---999999999---|
EI---555555555---777777777---|


Coro (x 2)

eI--------------------------------------------------|
BI--------------------------------------------------|
GI-9999---------------------------------------------|
DI-9999-6666-7777-99999---5555555-777777-9999999----|
AI-7777-6666-7777-99999---5555555-777777-9999999----|
EI------4444-5555-77777---4444444-555555-7777777----|


Intro (x 4)

eI---------------------------|
BI---------------------------|
GI------------------11-9-----|
DI-99---------------9--7-----|
AI-77-66-77---66-77----------|
EI----44-55---44-55----------|

Verso (x 2)

eI----------------------------------------------------|
BI----------------------------------------------------|
GI-xx-9--xx-9-----------------------------------------|
DI-xx-9--xx-9--xx-9--xx-9--xx-11--xx-11--xx-9--xx-9---|
AI-xx-7--xx-7--xx-9--xx-9--xx-11--xx-11--xx-9--xx-9---|
EI-------------xx-7--xx-7--xx-9---xx-9---xx-7--xx-7---|

      (x 2)

eI--------------------------------------------------|
BI--------------------------------------------------|
GI-99999999-----------------------------------------|
DI-99999999-99999999---11-11-11-11-11--9999999999---|
AI-77777777-99999999---11-11-11-11-11--9999999999---|
EI----------77777777---9--9--9--9--9---7777777777---|


Estribillo (x 1)

eI---------------------------|
BI---------------------------|
GI---------------------------|
DI---777777777---999999999---|
AI---777777777---999999999---|
EI---555555555---777777777---|


Coro (x 2)

eI-----------------------------------------------------------------|
BI-----------------------------------------------------------------|
GI-9999------------------------------------------------------------|
DI-9999-6666-7777-99999---5555555-777777-9999999----7-(deja sonar)-|
AI-7777-6666-7777-99999---5555555-777777-9999999----7--------------|
EI------4444-5555-77777---4444444-555555-7777777----5--------------|


Ultimo Verso (x 3)

eI----------------------------------------|
BI----------------------------------------|
GI----------------------------------------|
DI--22222222-66666666-11-11-11-11-11-11---|
AI--22222222-66666666-11-11-11-11-11-11---|
EI--00000000-44444444-9--9--9--9--9--9----|

eI-------------------|
BI-------------------|
GI-------------------|
DI----11--9--7--9----|
AI----11--9--7--9----|
EI----9---7--5--7----|


Final

eI----------------------------------------|
BI----------------------------------------|
GI----------------------------------------|
DI--22222222-66666666-11-11-11-11-11-11---|
AI--22222222-66666666-11-11-11-11-11-11---|
EI--00000000-44444444-9--9--9--9--9--9----|

eI---------------------------------|
BI---------------------------------|
GI---------------------------------|
DI--9999-7777-9999--7-(deja sonar)-|
AI--9999-7777-9999--7--------------|
EI--7777-5555-7777--5--------------|

----------------------------------------------------------------------------

11.-Ando Pedo Y Ella Esta Aqui

Gtr 1 (Palm Mute)

eI-------------------------|
BI-------------------------|
GI-------------------------|
DI-x-x-x-x-x-x-x-x---------|
AI-x-x-x-x-x-x-x-x---------|
EI-x-x-x-x-x-x-x-x---------|

Gtr 2 (Drop D, Sexta en Re)

eI-------------------------------------------------------|
BI-------------------------------------------------------|
GI-------------------------------------------------------|
DI-x1--x11--x3-33--x4-44--x3-33--x1-11--x3-33--x4-44---6-|
AI-x1--x11--x3-33--x4-44--x3-33--x1-11--x3-33--x4-44---6-|
DI-x1--x11--x3-33--x4-44--x3-33--x1-11--x3-33--x4-44---6-|

 - - - - - - - - - - - - - - - - - - - -

Gtr 1                                           (2x)

eI--------------------------------------------------|
BI---------------------------------------6-7-6------|
GI-6-4-3-------6-4-3-------6-4-3-------6-------6----|
DI-------4-6-4-------4-6-4-------4-6-4-----------4--|
AI--------------------------------------------------|
EI--------------------------------------------------|

Gtr 2

eI------------------------------------------------------------------|
BI------------------------------------------------------------------|
GI------------444--888--666------------444--888--666--------4-3-----|
DI-444--666---444--888--666--444--666--444--888--666--xx-4--4-3-6-4-|
AI-444--666---222--666--444--444--666--222--666--444--xx-4--2-1-6-4-|
DI-444--666------------------444--666-----------------xx-4------6-4-|

 - - - - - - - - - - - - - - - - - - - -

Antes de venir
A la fiesta de Delfín
Yo me eché como 8 pistos
Y ahora estoy aquí
Yo me sirvo un Bacardi
Y ella estaba junto a mí

 - - - - - - - - - - - - - - - - - - - -

F#5        G#5
No puedo mirar atrás
      B5
Ella cerca esta
      D#5      C#5    F#5
Y ya no puedo respirar


Gtr1

   F#5    G#5    B5    D#5  C#5
eI-------------------------------|
BI-------------------------------|
GI---------------4-444-8-88-6-66-|
DI-4-444--6-666--4-444-8-88-6-66-|
AI-4-444--6-666--2-222-6-66-4-44-|
EI-2-222--4-444------------------|

Gtr 2

   F#5    G#5    B5    D#5  C#5
eI-------------------------------|
BI-------------------------------|
GI---------------4-444-8-88-6-66-|
DI-4-444--6-666--4-444-8-88-6-66-|
AI-4-444--6-666--2-222-6-66-4-44-|
DI-4-444--6-666------------------|

                 G#5
Lo bueno es que pedo estoy
     B#5
Y valiente soy
       D#5    C#5     B5
Échame un pisto rápido
       C#5
Que ya voy hacia ella

Gtr 1

   F#5    G#5    B5    D#5  C#5  B5     C#5
eI---------------------------------------------|
BI---------------------------------------------|
GI---------------4-444-8-88-6-66-4-4444-6-6666-|
DI-4-444--6-666--4-444-8-88-6-66-4-4444-6-6666-|
AI-4-444--6-666--2-222-6-66-4-44-2-2222-4-4444-|
EI-2-222--4-444--------------------------------|

Gtr 2

   F#5    G#5    B5    D#5  C#5  B5     C#5
eI---------------------------------------------|
BI---------------------------------------------|
GI---------------4-444-8-88-6-66-4-4444-6-6666-|
DI-4-444--6-666--4-444-8-88-6-66-4-4444-6-6666-|
AI-4-444--6-666--2-222-6-66-4-44-2-2222-4-4444-|
DI-4-444--6-666--------------------------------|

 - - - - - - - - - - - - - - - - - - - - -

F#5   G#5      B5  C#5
Y le voy a llegar
B5    F#5   G#5 C#5
Otro pisto necesito
F#5   G#5      B5  C#5
Y le voy a llegar

Gtr 1

   F#5 G#5 B5  C#5
eI---------------------------------|
BI---------------------------------|
GI---------444-666-444---------666-|
DI-444-666-444-666-444-444-666-666-|
AI-444-666-222-444-222-444-666-444-|
EI-222-444-------------222-444-----|

Gtr 2

   F#5 G#5 B5  C#5
eI---------------------------------|
BI---------------------------------|
GI---------444-666-444---------666-|
DI-444-666-444-666-444-444-666-666-|
AI-444-666-222-444-222-444-666-444-|
DI-444-666-------------444-666-----|

 - - - - - - - - - - - - - - - - - - - - - -

A llegar

Gtr 1

eI----------------------------|
BI----------------------------|
GI----------------4-3---------|
DI-xxx-1-xxx-1-1--4-3-6-4-----|
AI-xxx-1-xxx-1-1--2-1-6-4-----|
EI-xxx---xxx----------4-2-----|

Gtr 2

eI------------------------|
BI------------------------|
GI----------------4-3-----|
DI-xxx-1-xxx-1-1--4-3-6-4-|
AI-xxx-1-xxx-1-1--2-1-6-4-|
DI-xxx-1-xxx-1-1------6-4-|

 - - - - - - - - - - - - - - - - - - - - - - -
Solo

Gtr 1                                           (2x)

eI--------------------------------------------------|
BI---------------------------------------6-7-6------|
GI-6-4-3-------6-4-3-------6-4-3-------6-------6----|
DI-------4-6-4-------4-6-4-------4-6-4-----------4--|
AI--------------------------------------------------|
EI--------------------------------------------------|

Gtr 2

eI------------------------------------------------------------------|
BI------------------------------------------------------------------|
GI------------444--888--666------------444--888--666--------4-3-----|
DI-444--666---444--888--666--444--666--444--888--666--xx-4--4-3-6-4-|
AI-444--666---222--666--444--444--666--222--666--444--xx-4--2-1-6-4-|
DI-444--666------------------444--666-----------------xx-4------6-4-|

 - - - - - - - - - - - - - - - - - - - - - -

Yo me hice para atrás
Esto iba a salir mal
No me salían las palabras

Chance con 2 pistos mas
Yo me atrevería hablar
Deja irme a servirme mas

 - - - - - - - - - - - - - - - - - - - - - - -
F#5         G#5
No me puedo ni parar
         B5
Pero ella ahí esta
     D#5      C#5     F#5
No la puedo dejar pasar
               G#5
Esto ya no es natural
        B5
Ya voy para haya
      D#5        C#5  B5
Mi aliento a que olerá
         C#5
Y ya voy hacia ella

Gtr 1

   F#5    G#5    B5    D#5  C#5  B5     C#5
eI---------------------------------------------|
BI---------------------------------------------|
GI---------------4-444-8-88-6-66-4-4444-6-6666-|
DI-4-444--6-666--4-444-8-88-6-66-4-4444-6-6666-|
AI-4-444--6-666--2-222-6-66-4-44-2-2222-4-4444-|
EI-2-222--4-444--------------------------------|

Gtr 2

   F#5    G#5    B5    D#5  C#5  B5     C#5
eI---------------------------------------------|
BI---------------------------------------------|
GI---------------4-444-8-88-6-66-4-4444-6-6666-|
DI-4-444--6-666--4-444-8-88-6-66-4-4444-6-6666-|
AI-4-444--6-666--2-222-6-66-4-44-2-2222-4-4444-|
DI-4-444--6-666--------------------------------|

 - - - - - - - - - - - - - - - - - - - - - - -

F#5   G#5      B5  C#5
Y le voy a llegar
B5    F#5   G#5 C#5
Otro pisto necesito
F#5   G#5      B5  C#5
Y le voy a llegar

Gtr 1

   F#5 G#5 B5  C#5
eI---------------------------------|
BI---------------------------------|
GI---------444-666-444---------666-|
DI-444-666-444-666-444-444-666-666-|
AI-444-666-222-444-222-444-666-444-|
EI-222-444-------------222-444-----|

Gtr2

   F#5 G#5 B5  C#5
eI---------------------------------|
BI---------------------------------|
GI---------444-666-444---------666-|
DI-444-666-444-666-444-444-666-666-|
AI-444-666-222-444-222-444-666-444-|
DI-444-666-------------444-666-----|

 - - - - - - - - - - - - - - - - - - - - - -

A llegar

Gtr 1
eI----------------------------|
BI----------------------------|
GI----------------4-3---------|
DI-xxx-1-xxx-1-1--4-3-6-4-----|
AI-xxx-1-xxx-1-1--2-1-6-4-----|
EI-xxx---xxx----------4-2-----|

Gtr 2
eI------------------------|
BI------------------------|
GI----------------4-3-----|
DI-xxx-1-xxx-1-1--4-3-6-4-|
AI-xxx-1-xxx-1-1--2-1-6-4-|
DI-xxx-1-xxx-1-1------6-4-|

 - - - - - - - - - - - - - - - - - - - - - - -

Solo

Gtr 1 (Palm Mute)                         (2X)

eI--------------------------------------------|
BI--------------------------------------------|
GI--------------------------------------------|
DI--------------------------------------------|
AI-----------4-2-1---------4-4-2-1------------|
EI-2-222-2-2-------4-444-4---------2-222-2-2--|


Gtr 1                                     (2X)

eI------------------------------------------------|
BI------------------------------------------------|
GI--------------------------------------------6-6-|
DI-4-4---------6-6-----------4-4---------6-6--6-6-|
AI-4-4--4-2-1--6-6--4-4-2-1--4-4--4-2-1--6-6--4-4-|
EI-2-2---------4-4-----------2-2---------4-4------|

Gtr 2

eI-------------------------------------------|
BI-------------------------------------------|
GI-----------6-4-3---------6-6-4-3-----------|
DI-4-444-4-4-6-4-3-6-666-6-6-6-4-3-4-444-4-4-|
AI-4-444-4-4-4-2-1-6-666-6-4-4-2-1-4-444-4-4-|
DI-4-444-4-4-------6-666-6---------4-444-4-4-|

 - - - - - - - - - - - - - - - - - - - - - - -

F#5   G#5      B5  C#5                     (2x)
Y le voy a llegar
B5    F#5   G#5 C#5
Otro pisto necesito
F#5   G#5      B5  C#5
Y le voy a llegar

Gtr 1

   F#5 G#5 B5  C#5
eI---------------------------------|
BI---------------------------------|
GI---------444-666-444---------666-|
DI-444-666-444-666-444-444-666-666-|
AI-444-666-222-444-222-444-666-444-|
EI-222-444-------------222-444-----|

Gtr2

   F#5 G#5 B5  C#5
eI---------------------------------|
BI---------------------------------|
GI---------444-666-444---------666-|
DI-444-666-444-666-444-444-666-666-|
AI-444-666-222-444-222-444-666-444-|
DI-444-666-------------444-666-----|

 - - - - - - - - - - - - - - - - - - - - - -

A llegar

Gtr 1
eI----------------------------|
BI----------------------------|
GI----------------4-3---------|
DI-xxx-1-xxx-1-1--4-3-6-4-----|
AI-xxx-1-xxx-1-1--2-1-6-4-----|
EI-xxx---xxx----------4-2-----|

Gtr 2
eI------------------------|
BI------------------------|
GI----------------4-3-----|
DI-xxx-1-xxx-1-1--4-3-6-4-|
AI-xxx-1-xxx-1-1--2-1-6-4-|
DI-xxx-1-xxx-1-1------6-4-|
diaz ordaz rockea¡¡ nos vemos

----------------------------------------------------------------------------

12.-Ilasha

INTRO

Guitarra 2 

eb|------------------------|
Bb|------------------------|   
Gb|------------------------| 
Ab|------4-7-5-------------|
Eb|----5-------------------|



Esta es la parte de teclado y entra en la tercera vez del intro

Guitarra 1
 
eb|-10-9----10-9----10-9-10-12-10-9--10-9---10-9----10-9----10-9-10-12-|
Bb|------10------10------------------------------10------10------------|
Gb|--------------------------------------------------------------------|
Db|--------------------------------------------------------------------|
Ab|--------------------------------------------------------------------|
Eb|--------------------------------------------------------------------|


Verso 

(Por ke me dejasteee ke pensastee.....)

Guitarra 1 y 2

eb|--------------------------|
Bb|--------------------------|
Gb|-----7--------------------|
Db|--7--7--4--2--------------|  X2
Ab|--7--5--4--2--------------|
Eb|--5-----2--0--------------|


(Yo pense ke eras normal kuando yo te vi bailar.....)

Guitarra 1

eb|------12-10-9-10-12-10-9----------------|
Bb|-(10)--------------------12-10----------|        
Gb|----------------------------------------|        
Db|----------------------------------------| X4
Ab|----------------------------------------|
Eb|----------------------------------------|


Guitarra 2

eb|-------------------------|  |----------------------------|
Bb|-------------------------|  |----------------------------|
Gb|-------------x-x-7-------|  |--------x-x-7---------------| 
Db|-x-x-7-------x-x-7-------|x2|-x-x-7--x-x-7--x-x-4--x-x-2-|   
Ab|-x-x-7-(x4)--x-x-5-(x4)--|  |-x-x-7--x-x-5--x-x-4--x-x-2-|
Eb|-x-x-5-------------------|  |-x-x-5---------x-x-2--x-x-0-|

                                  (x4)   (x4)   (x4)   (x4) 



Coro

Guitarra 1 y 2

(Hay nooooo!!!!! no era como se describia.....)

eb|-------------------------|
Bb|-------------------------|
Gb|---------7--9------------|
Db|--7--9---7--9------------|x2
Ab|--7--9---5--7------------|
Eb|--5--7-------------------|




Sigue el intro igual


verso

(POr ke estas tan trizteeee......)

Guitarra 1 y 2

eb|--------------------------|
Bb|--------------------------|
Gb|-----7--------------------|
Db|--7--7--4--2--------------|  X2
Ab|--7--5--4--2--------------|
Eb|--5-----2--0--------------|


(Me enseñaste muchas kosas ke yo nunka olvidare........)

Guitarra 1

eb|------12-10-9-10-12-10-9--------|     |-----12-10-9-10-|
Bb|-(10)--------------------12-10--|     |----------------|
Gb|--------------------------------|     |----------------|
Db|--------------------------------| X3  |----------------|
Ab|--------------------------------|     |----------------|
Eb|--------------------------------|     |----------------|


Guitarra 2

eb|-------------------------|   |----------------------------|
Bb|-------------------------|   |----------------------------|
Gb|-------------x-x-7-------|   |--------x-x-7---------------| 
Db|-x-x-7-------x-x-7-------| x2|-x-x-7--x-x-7--x-x-4--x-x-2-|   
Ab|-x-x-7-(x4)--x-x-5-(x4)--|   |-x-x-7--x-x-5--x-x-4--x-x-2-|
Eb|-x-x-5-------------------|   |-x-x-5---------x-x-2--x-x-0-||

                                  (x4)   (x4)   (x4)   

Coro

Guitarra 1 y 2

(Hay nooooo!!!!! no era como se describia.....)

eb|-------------------------|
Bb|-------------------------|
Gb|---------7--9------------|
Db|--7--9---7--9------------|x2
Ab|--7--9---5--7------------|
Eb|--5--7-------------------|



Verso

Guitarra 1 y 2

(Tu me dijiste muchas cosas para ke fuera a caeeer)

eb|------------------------------------------------|   
Bb|------------------------------------------------|
Gb|--7----------------7--9-------------------------|
Db|--7--9--7--4-------7--9-------------------------|
Ab|--5--9--7--4--x3---5--7-------------------------|
Eb|-----7--5--2------------------------------------|




Coro

Guitarra 1 y 2

(Hay nooooo!!!!! no era como se describia.....)

eb|-------------------------|
Bb|-------------------------|
Gb|---------7--9------------|
Db|--7--9---7--9------------|x4
Ab|--7--9---5--7------------|
Eb|--5--7-------------------|

----------------------------------------------------------------------------

13.-Mala Suerte

Intro

E----------------------------------------------------------------------------------|
B----------------------------------------------------------------------------------|
G-2/4-4-----456-6-6--4/6-6-----678-8-8--6/8-8-----8910-----------------------------|
D-2/4-4(X6)-456-6-6--4/6-6(X6)-678-8-8--6/8-8(X6)-8910--10-10-10-10-8888-666-4-2-4-|
A-0/2-2-----234-4-4--2/4-4-----456-6-6--4/6-6-----67-8--10-10-10-10-8888-666-4-2-4-|
E-------------------------------------------------------8--8--8--8--6666-444-2-0-2-|

 
VERSO

Me enamore de una lesbiana y ella rompio mi corazon
una de esas ke no come ella prefiere a las mujeres ke a mi

E---------------------------------------------------------------
B---------------------------------------------------------------
G---------------------------------------------------------------
D--444444444444--666666666666--9999999999--11-11-11-11-11-11-11-
A--444444444444--666666666666--9999999999--11-11-11-11-11-11-11-
E--222222222222--444444444444--7777777777--9--9--9--9--9--9--9--

E------------------------------------------------------------|
B------------------------------------------------------------|
G------------------------------------------------------------|
D--888888888--999999999--888888888--666666666--4----2--4-----|
A--888888888--999999999--888888888--666666666--4----2--4-----|
E--666666666--777777777--666666666--444444444--2----0--2-----|

VERSO

me enamore de una lesbiana y yo mujer nunca sere
pues ella no me pela aparte kreo ke ya se enamoro de un gay

E---------------------------------------------------------------
B---------------------------------------------------------------
G---------------------------------------------------------------
D--444444444444--666666666666--9999999999--11-11-11-11-11-11-11-
A--444444444444--666666666666--9999999999--11-11-11-11-11-11-11-
E--222222222222--444444444444--7777777777--9--9--9--9--9--9--9--

E------------------------------------------------------------|
B------------------------------------------------------------|
G------------------------------------------------------------|
D--888888888--999999999--888888888--666666666--4----2--4-----|
A--888888888--999999999--888888888--666666666--4----2--4-----|
E--666666666--777777777--666666666--444444444--2----0--2-----|




CORO

y yo hago lo posible para ke se fije en mi
pero ella no responde mi mala suerte ha de seguir

E--------------------------------------------------------------------------|
B--------------------------------------------------------------------------|
G--44444444----------44444444----------44444444-------------------66666666-|
D--44444444-44444444-44444444-44444444-44444444-44444444-66666666-66666666-|
A--22222222-44444444-22222222-44444444-22222222-44444444-66666666-44444444-|
E-----------22222222----------22222222----------22222222-44444444----------|



VERSO

yo le mande un ramo de flores pero ella las tiro
yo creo ke no le gustan flores
ella prefiere los dildos de plastico

E---------------------------------------------------------------
B---------------------------------------------------------------
G---------------------------------------------------------------
D--444444444444--666666666666--9999999999--11-11-11-11-11-11-11-
A--444444444444--666666666666--9999999999--11-11-11-11-11-11-11-
E--222222222222--444444444444--7777777777--9--9--9--9--9--9--9--

E------------------------------------------------------------|
B------------------------------------------------------------|
G------------------------------------------------------------|
D--888888888--999999999--888888888--666666666--4----2--4-----|
A--888888888--999999999--888888888--666666666--4----2--4-----|
E--666666666--777777777--666666666--444444444--2----0--2-----|



CORO

y yo hago lo posible para ke se fije en mi
pero ella no responde mi mala suerte ha de seguir

E--------------------------------------------------------------------------|
B--------------------------------------------------------------------------|
G--44444444----------44444444----------44444444-------------------66666666-|
D--44444444-44444444-44444444-44444444-44444444-44444444-66666666-66666666-|
A--22222222-44444444-22222222-44444444-22222222-44444444-66666666-44444444-|
E-----------22222222----------22222222----------22222222-44444444----------|

VERSO

AAAAAH HAAAAAAAA HAAAAAAAAAAAAAAAAA

E---------------------------------------------------------------
B---------------------------------------------------------------
G---------------------------------------------------------------
D--444444444444--666666666666--9999999999--11-11-11-11-11-11-11-
A--444444444444--666666666666--9999999999--11-11-11-11-11-11-11-
E--222222222222--444444444444--7777777777--9--9--9--9--9--9--9--

E------------------------------------------------------------|
B------------------------------------------------------------|
G------------------------------------------------------------|
D--888888888--999999999--888888888--666666666--4----2--4-----|
A--888888888--999999999--888888888--666666666--4----2--4-----|
E--666666666--777777777--666666666--444444444--2----0--2-----|

----------------------------------------------------------------------------

14.-Amiguito

Inicio

1I-------------------------------I
2I-------------------------------I
3I--66666666666666666666---------I
4I--66666666666666666666---------I x 1  (2 Guitarras)
5I--44444444444444444444---------I
6I-------------------------------I


  (Guitarra 1)
1I----------------------------------------------I
2I----------------------------------------------I
3I--66666-8-6-5-6----1010101010-1111-101010-----I
4I--xxxxx-x-x-x-x----x-x-x-x-x--x-x--x-x-x------I
5I--44444-6-4-3-4----8-8-8-8-8--9-9--8-8-8------I
6I----------------------------------------------I

1I-------------------------------------I
2I-------------------------------------I
3I--66666-8-6-5-6----333333-555555-----I
4I--xxxxx-x-x-x-x----xxxxxx-xxxxxx-----I x 2
5I--44444-6-4-3-4----111111-333333-----I
6I-------------------------------------I


   (Guitarra 2)
1I---------------------------------------------I
2I---------------------------------------------I
3I--6666666------------------------------------I
4I--6666666----666666----444444------666666----I x 2
5I--4444444----666666----444444------666666----I
6I-------------444444----222222------444444----I



Verso:

      Te Dices Tu Llamar  Un Amigo De Verdad
1I-----------------------------------------------------I
2I-----------------------------------------------------I
3I-----------------------------------------------------I
4I-----6-----6-----6-----6-----------------------------I
5I--44-4--44-4--44-4--44-4------6-----6-----6-----6----I
6I---------------------------44-4--44-4--44-4--44-4----I
PM  **    **    **    **     **    **    **    **


  Me Dices Tus Mentiras Asi De Tonto He De Estar
1I-----------------------------------------------------I
2I-----------------------------------------------------I
3I-----------------------------------------------------I
4I-----------------------------------------------------I
5I-----4-----4-----4-----4------6-----6-----6-----6----I
6I--22-2--22-2--22-2--22-2---44-4--44-4--44-4--44-4----I
PM  **    **    **    **     **    **    **    **


  Pero No Hay Necesidad Yo Aprendi A Perdonar
1I-----------------------------------------------------I
2I-----------------------------------------------------I
3I-----------------------------------------------------I
4I-----6-----6-----6-----6-----------------------------I
5I--44-4--44-4--44-4--44-4------6-----6-----6-----6----I
6I---------------------------44-4--44-4--44-4--44-4----I
PM  **    **    **    **     **    **    **    **


  Siempre Hice Lo Posible Para Bien Contigo Estar
1I-----------------------------------------------------I
2I-----------------------------------------------------I
3I-----------------------------------------------------I
4I-----------------------------------------------------I
5I-----4-----4-----4-----4------6-----6-----6-----6----I
6I--22-2--22-2--22-2--22-2---44-4--44-4--44-4--44-4----I
PM  **    **    **    **     **    **    **    **


  Inventas Cosas De Mi Dices Que Abuso De Ti
  Me Confundo Quien Sera El Abusado Aqui?
  Pero No Hay NeceSidad Todo Lo Que Digo Esta Mal,
  Aparte Siempre Haces A Mis Amigos Llorar
1I---------------------------------------------------I
2I---------------------------------------------------I
3I--666666666----------------------------------------I
4I--666666666----66666666----44444444----66666666----I x 2
5I--444444444----66666666----44444444----66666666----I
6I---------------44444444----22222222----44444444----I



Inter :

  (Guitarra 1)
1I--------------------------------------------------------------------------I
2I--------------------------------------------------------------------------I
3I--1010101010101010/555555555/8888/10101010/66666666/8888/10101010/8888----I
4I--x-x-x-x-x-x-x-x-/xxxxxxxxx/xxxx/x-x-x-x-/xxxxxxxx/xxxx/x-x-x-x-/xxxx----I x 1
5I--8-8-8-8-8-8-8-8-/333333333/6666/8-8-8-8-/44444444/6666/8-8-8-8-/6666----I
6I--------------------------------------------------------------------------I

  (Guitarra 2)
1I---------------------------------------------------------------------------I
2I---------------------------------------------------------------------------I
3I--66---666-----------------------------------------------------------------I
4I--66---666-----------666---666-----------444---444-----------666---666-----I x 1
5I--44---444-----------666---666-----------444---444-----------666---666-----I
6I---------------------444---444-----------222---222-----------444---444-----I



Coro :

  Amigo Deja De Creer Que Al Vivo Le Pegas Bien,
  Ahora Que Va A Suceder? Ya No Quiero Volverte A Ver
1I---------------------------------------------------I
2I---------------------------------------------------I
3I--666666666----------------------------------------I
4I--666666666----66666666----44444444----66666666----I x 2 (2 Guitarras)
5I--444444444----66666666----44444444----66666666----I
6I---------------44444444----22222222----44444444----I


Intro :

  (Guitarra 1)
1I----------------------------------------------I
2I----------------------------------------------I
3I--66666-8-6-5-6----1010101010-1111-101010-----I
4I--xxxxx-x-x-x-x----x-x-x-x-x--x-x--x-x-x------I
5I--44444-6-4-3-4----8-8-8-8-8--9-9--8-8-8------I
6I----------------------------------------------I

1I--------------------------------------I
2I--------------------------------------I
3I--66666-8-6-5-6----333333-555555/0----I
4I--xxxxx-x-x-x-x----xxxxxx-xxxxxx/x----I x 2
5I--44444-6-4-3-4----111111-333333/0----I
6I--------------------------------------I


   (Guitarra 2)
1I---------------------------------------------I
2I---------------------------------------------I
3I--6666666------------------------------------I
4I--6666666----666666----444444------666666----I x 2
5I--4444444----666666----444444------666666----I
6I-------------444444----222222------444444----I



Verso 2 :


Ongi Me Vino A Decir Que Tu Hablas Mal De Mi,
Criticas y Criticas Tu siempre Has Sido Asi

 (Bajo)



  Pero No Hay Necesidad De Golpear A Los Demas
1I-------------------------------------------------------I
2I-------------------------------------------------------I
3I-------------------------------------------------------I
4I-----6-----6-----6-----6-------6-----6-----6-----6-----I
5I--44----44----44----44------33----33----33----33-------I
6I-------------------------------------------------------I
PM  **    **    **    **      **    **    **    **


El Pobre Ongi Ya Nunca Podra Quedar Igual
1I---------------------------------------------------------I
2I---------------------------------------------------------I
3I---------------------------------------------------------I
4I-----3-----3-----3-----3---------------------------------I
5I--11----11----11----11---------6-----6----66----66-------I
6I----------------------------44----44------44----44-------I
PM  **    **    **    **      **    **    En Esta Parte Escuchen Bien La Rola



Inter :

  (Guitarra 1)
1I---------------------------------------------------------------------------I
2I---------------------------------------------------------------------------I
3I--1010101010101010/6666666666/8888/10101010/66666666/8888/10101010/8888----I
4I--x-x-x-x-x-x-x-x-/xxxxxxxxxx/xxxx/x-x-x-x-/xxxxxxxx/xxxx/x-x-x-x-/xxxx----I x 1
5I--8-8-8-8-8-8-8-8-/4444444444/6666/8-8-8-8-/44444444/6666/8-8-8-8-/6666----I
6I---------------------------------------------------------------------------I

  (Guitarra 2)
1I---------------------------------------------------------------------------I
2I---------------------------------------------------------------------------I
3I--66---666-----------------------------------------------------------------I
4I--66---666-----------666---666-----------444---444-----------666---666-----I x 1
5I--44---444-----------666---666-----------444---444-----------666---666-----I
6I---------------------444---444-----------222---222-----------444---444-----I




Coro :

  Amigo Deja De Creer Que Al Vivo Le Pegas Bien,
  Ahora Que Va A Suceder? Ya No Quiero Volverte A Ver
1I---------------------------------------------------I
2I---------------------------------------------------I
3I--666666666----------------------------------------I
4I--666666666----66666666----44444444----66666666----I x 2 (2 Guitarras)
5I--444444444----66666666----44444444----66666666----I
6I---------------44444444----22222222----44444444----I


Fin 1:

  Ya No Quiero Volverte a Ver
1I--------------------------------------------I
2I--------------------------------------------I
3I--10101010/8888-----------------------------I
4I--x-x-x-x-/xxxx---44-4-44-4---66-6-66-6-----I x 3 (Guitarra 1)
5I--8-8-8-8-/6666---44-4-44-4---66-6-66-6-----I
6I------------------22-2-22-2---44-4-44-4-----I
PM                  **   **     **   **


1I--------------------------------------------I
2I--------------------------------------------I
3I--66666-------------------------------------I
4I--66666--66666----44-4-44-4---66-6-66-6-----I x 3 (guitarra 2)
5I--44444--66666----44-4-44-4---66-6-66-6-----I
6I---------44444----22-2-22-2---44-4-44-4-----I
PM                  **   **     **   **



Fin 2 :


  (Guitarra 1)
1I---------------------------------------------------------------------------------------I
2I---------------------------------------------------------------------------------------I
3I--10101010/8888--6666/8888/10101010/11111111/13131313/15151515/17171717/18181818/19----I
4I--x-x-x-x-/xxxx--xxxx/xxxx/x-x-x-x-/x-x-x-x-/x-x-x-x-/x-x-x-x-/x-x-x-x-/x-x-x-x-/x-----I
5I--8-8-8-8-/6666--4444/6666/8-8-8-8-/9-9-9-9-/11111111/13131313/15151515/16161616/17----I
6I---------------------------------------------------------------------------------------I


  (Guitarra 2)
1I--------------------------------------------------------------I
2I--------------------------------------------------------------I
3I--66666--------------------------------------------------6----I
4I--66666--66666----44-4-44-4-44-4-44-4--66-6-66-6-66-6-66-6----I
5I--44444--66666----44-4-44-4-44-4-44-4--66-6-66-6-66-6-66-4----I
6I---------44444----22-2-22-2-22-2-22-2--44-4-44-4-44-4-44------I
PM                  **   **   **   **    **   **   **   **



1I----------I
2I----------I
3I--6--5----I
4I--6--5----I (Guitarra 1 y 2)
5I--4--3----I
6I----------I

----------------------------------------------------------------------------

15.-Maracas

Intro

Les voy a contar la historia . . . .

eI---------------
BI---------------
GI-6---6---6---6-
DI-6---6---6---6-
AI-4---4---4---4-
EI---------------

 - - - - - - - - - - - - - - - - - - - - - 
                          C#5 
Amigo ven te invito una copa
                                G#5
Mejor mas bien te invito un café
      F#5                     C#5 G#5 A#5 G#5
Que quiero recordar la época loca
     F#5       G#5        C#5
De ayer cuando teníamos 16

   C#5                G#5      F#5          A#5
eI---------------------------------------------------------
BI---------------------------------------------------------
GI-6-6--6-6--6-6--6-6--------------------6---3-----------6-
DI-6-6--6-6--6-6--6-6-6-6--6-6--4-4--4-4-6-6-3-6-4-4-6-6-6-
AI-4-4--4-4--4-4--4-4-6-6--6-6--4-4--4-4-4-6-1-6-4-4-6-6-4-
EI--------------------4-4--4-4--2-2--2-2---4---4-2-2-4-4---

                                    C#5
Bien dime que ha pasado con tu esposa
                             G#5
Seguro te dejo por ser infiel
    F#5                      C#5 G#5 A#5 G#5
Recuerdas que yo le mandaba rosas 
   F#5         G#5           C#5
Pero la conquisto mas tu clavel

   C#5                G#5      F#5          A#5
eI---------------------------------------------------------
BI---------------------------------------------------------
GI-6-6--6-6--6-6--6-6--------------------6---3-----------6-
DI-6-6--6-6--6-6--6-6-6-6--6-6--4-4--4-4-6-6-3-6-4-4-6-6-6-
AI-4-4--4-4--4-4--4-4-6-6--6-6--4-4--4-4-4-6-1-6-4-4-6-6-4-
EI--------------------4-4--4-4--2-2--2-2---4---4-2-2-4-4---

 - - - - - - - - - - - - - - - - - - - - - -

Llevamos juntos serenata                (2X)
Juntos hasta el balcón aquel
Tú la guitarra y yo maracas
Ella 15 y nosotros 16

eI-------------------------------------------
BI-------------------------------------------
GI-444-----6---6---6-----------6---6---6-----
DI-444-666-6-6-6-6-6-6-444-666-6-6-6-6-6-6-4-
AI-444-666-4-6-4-6-4-6-444-666-4-6-4-6-4-6-4-
EI-222-444---4---4---4-222-444---4---4---4-2-

eI-------------------------------------------
BI-------------------------------------------
GI---------6---3--------6---6---6------------
DI-444-666-6-6-3-6-4----6-6-6-6-6-6-4--------
AI-444-666-4-6-1-6-4----4-6-4-6-4-6-4--------
EI-222-444---4---4-2------4---4---4-2--------


 - - - - - - - - - - - - - - - - - - - - - -
Solo

Gtr 1

eI------------------4----4----4----4-----------------------------
BI---------------4^6--4^6--4^6--4^6--6-4--------------------6----
GI-6-6-6-8-8-8-6----------------------------6----6----6----6-8-66
DI---------------------------------------6^8--6^8--6^8--6^8------
AI---------------------------------------------------------------
EI---------------------------------------------------------------

Gtr 2

eI-------------------------------------------
BI-------------------------------------------
GI-444-----6---6---6-----------6---6---------
DI-444-666-6-6-6-6-6-6-444-666-6-6-6---------
AI-444-666-4-6-4-6-4-6-444-666-4-6-4---------
EI-222-444---4---4---4-222-444---4-----------

 - - - - - - - - - - - - - - - - - - - - - -
                                 C#5
Solo por ser mi amigo te confieso
                               G#5
Me divorcie mas nunca la olvide
    F#5                      C#5 G#5 A#5 G#5
Extraño su mirar sueño el regreso
   F#5          G#5          C#5
Le amo mas que cuando me case

   C#5                G#5      F#5          A#5
eI---------------------------------------------------------
BI---------------------------------------------------------
GI-6-6--6-6--6-6--6-6--------------------6---3-----------6-
DI-6-6--6-6--6-6--6-6-6-6--6-6--4-4--4-4-6-6-3-6-4-4-6-6-6-
AI-4-4--4-4--4-4--4-4-6-6--6-6--4-4--4-4-4-6-1-6-4-4-6-6-4-
EI--------------------4-4--4-4--2-2--2-2---4---4-2-2-4-4---

 - - - - - - - - - - - - - - - - - - - - - -

Llevemos juntos serenata                (2X)
Esto lo deben de saber
Yo la guitarra y Tu maracas
Conquístala Ámala

eI-------------------------------------------
BI-------------------------------------------
GI-444-----6---6---6-----------6---6---6-----
DI-444-666-6-6-6-6-6-6-444-666-6-6-6-6-6-6-4-
AI-444-666-4-6-4-6-4-6-444-666-4-6-4-6-4-6-4-
EI-222-444---4---4---4-222-444---4---4---4-2-

eI---------------------
BI---------------------
GI---------6---3-----6-
DI-444-666-6-6-3-6-4-6-
AI-444-666-4-6-1-6-4-4-
EI-222-444---4---4-2---

Como Cuando teníamos 16

eI-------------------------------------------
BI-------------------------------------------
GI-444-----6---6---6-----------6---6---6-----
DI-444-666-6-6-6-6-6-6-444-666-6-6-6-6-6-6-4-
AI-444-666-4-6-4-6-4-6-444-666-4-6-4-6-4-6-4-
EI-222-444---4---4---4-222-444---4---4---4-2-

----------------------------------------------------------------------------


                              

Добавлено: 29.06.2013
Другие материалы по этой песне:
  • Аккорды и текст

Страница создана 29.06.2013
http://primanota.ru/panda/la-revancha-del-principe-charro-chords.htm
Привет, Гость.
Предлагаем пройти революционный курс по гитаре.
Подарок от PrimaNota.Ru, забирай!