PrimaNota.ru - самый крупный в мире бесплатный архив песенных текстов, аккордов, табулатур и нот


Panda - Para Ti Con Desprecio - таба, видео

Регистрация Запомнить меня
Войти через:  Facebook Google Twitter Vk Yandex Mail.ru

Panda - Para Ti Con Desprecio - таба, видео

Печатать
Просмотров: 64
Bueno les traigo el album de panda "para ti con desprecio" y se la dedico a mi amiga
Lorena Ponce que hizo que sacara el album pues le gustan algunas canciones.

1.DISCULPA LOS MALOS PENSAMIENTOS
2....Y DE LA GASOLINA RENACIO EL AMOR
3.CITA EN EL QUIROFANO
4.YA NO ES SUFICIENTE LAMENTAR
5.3+1
6.MI HURACAN LLEVABA TU NOMBRE
7.PROMESAS/DECEPCIONES
8.CUANDO NO ES COMO DEBIERA DE SER
9.MIEDO A LAS ALTURAS
10.HASTA EL FINAL
11.NO TIENES OPORTUNIDAD CONTRA MI ANTIPATICA IMAGINACIÓN
12.POR QUE TODAVIA PODEMOS DECIR UNA VEZ MAS
-----------------------------------------------------------------------------
            DISCULPA LOS MALOS PENSAMIENTOS
  TURNING:BEMOL

 GUITARRA 2
1|----|                          1|----|
2|----|                          2|----|
3|-4--| hasta los 5 seg cambia a 3|----|
4|-4--|                          4|-6--|
5|-2--|                          5|-6--|
6|----|                          6|-4--|

1|----|                        1|----|
2|----|                        2|----|
3|----| 4 seg despues cambia a 3|----|
4|-2--|                        4|-4--|
5|-2--|                        5|-4--|
6|-0--|                        6|-2--|

  GUITARRA 1 (Intro) se toka al mismo tiempo ke la GUITARRA 2
  Y SE UTILIZA TAMIEN EN LOS COROS.
  1|--------------------------------------|
  2|12-12-12-11-12-16-16-16-14-16-14-12---|
  3|x--x--x--x--x--x--x--x--x--x--x--x----| x3 veces
  4|9--9--9--8--9-/13-13-13-11-13-11-9----|
  5|--------------------------------------|
     y luego esto
  1|------------------------------------------------|
  2|12---11-11--12-12-12-14-12--11-11-16-16--14--12-|
  3|x----x--x---x--x--x—--x--x---x--x--x--x---x--x--|
  4|9----8--8---9—-9-—9/-11--9---8--8-13-13--11--9--|
  5|------------------------------------------------|
  6|------------------------------------------------|

  "Enjuagaremos aquellas veces ke dijiste ke me amabas" Lira 1
  1--------------------|     1--------------------|
  2--------------------|     2--------------------|
  3--------------------|     3--------------------|
  4--------------------|     4--------------------|
  5--xx9--x9-7-x6-7-6--| x 2 5--xx6--x9-7-x6-7-6--| x 2
  6--xx7---------------|     6--xx4---------------|

  1--------------------|     1--------------------|
  2--------------------|     2--------------------|
  3--------------------|     3--------------------|
  4--------------------|     4-------x4-2--x1--2-1|
  5--xx7--x9-7-x6-7-6--| x 2 5--xx4---------------| x 2
  6--xx7---------------|     6--xx2---------------|

- 47 seg (coro)

- 1:04 se repite lo mismo de "ENJUAGAREMOS AKELLAS VECES..."

- 1:15 GUITARRA 2
  1|-----------------------------|
  2|11,11,11,11,11,11,11,11,11,11| esto va muy rapido
  3|xxxxxxxxxxxxxxxxxxxxxxxxxxxxx|
  4|8--8--8--8--8--8--8--8--8--8-|
  5|-----------------------------|
  6|-----------------------------|

- 1:19seg "Olvidaremos todos esos momentos ke..." las 2 guitarras

  guitarra 2
  1|--------------------|
  2|--------------------|
  3|xx9--x11-9-x9--11-9-| x 8 veces
  4|xx9--x11-9-x9--11-9-|
  5|--------------------|

  guitarra 1
  1--------------------|     1--------------------|
  2--------------------|     2--------------------|
  3--------------------|     3--------------------|
  4--------------------|     4--------------------|
  5--xx9--x9-7-x6-7-6--| x 2 5--xx6--x9-7-x6-7-6--| x 2
  6--xx7---------------|     6--xx4---------------|

  1--------------------|     1-------------------|
  2--------------------|     2-------------------|
  3--------------------|     3-------------------|
  4--------------------|     4------x4-2--x1--2-1|
  5--xx7--x9-7-x6-7-6--| x 2 5-xx4---------------| x 2
  6--xx7---------------|     6-xx2---------------|

- 1:35seg "Celebraremos ke todo termino con un..."
  1|----------------|
  2|----------------|
  3|-4--------------|
  4|-4---6---2---4--|
  5|-2---6---2---4--|
  6|-----4---0---2--|

- 1:50seg (Coro)

- 2:07seg cambia el tiempo es mas lento de la guitarra 1
  y hace esto: desde 2:07seg hasta 2:19seg
  1---------------------------------------|
  2-12-12-12-11-12-16-16-16-14-16-14-12---|
  3-x--x--x--x--x--x--x--x--x--x--x--x----| x3
  4-9--9--9--8--9-/13-13-13-11-13-11-9----|
  5---------------------------------------|
  6---------------------------------------|
  2:19seg "malos pensamientos"
  1---------------|
  2-11--10--14--16|
  3-x---x---x---x-|
  4-8---7---11--13|
  5---------------|
  6---------------|

- 2:23seg                  2:30seg
  1---------          ------------------|
  2---------          ------------------|
  3---------          ------------------|
  4--4-6-8--          --8-9-8-6--9-8-6--|
  5--2-4-6-- x 2 veces--6-7-6-4--7-6-4--|
  6---------          ------------------|

  2:53 "De rojo te ves bien, rojo te ves bien, de rojo
  te ves bienenenennen..."
             1|------|    1|-------|  1|--------| 1|-------|
  1|-----|   2|------|    2|-------|  2|--------| 2|-------|
  2|-----|   3|------|    3|-------|  3|--------| 3|-------|
  3|-----|   4|------|    4|-------|  4|--------| 4|-------|
  4|-x4--|   5|-xx6--|    5|---2-2-|  5|-4-4-4-4| 5|-4-4-4-|
  5|-x2--|   6|-xx4--|    6|---0-0-|  6|-2-2-2-2| 6|-2-2-2-|


  3:10seg "Lo que pedias yo te lo di, lo ke tenia te lo
  ofreci..."
  1|----------------|
  2|----------------|
  3|-4--------------|
  4|-4---6---2---4--| va masomenos lento.
  5|-2---6---2---4--|
  6|-----4---0---2--|

  3:26seg "(corito) Porke tu, muerta ahi estas,
  muerta estaras..."
  1|----------------|
  2|----------------|
  3|-4--------------|
  4|-4---6---2---4--| ESTO YA VA EN EL TIEMPO NORMAL
  5|-2---6---2---4--|
  6|-----4---0---2--|



         ...Y DE LA GASOLINA RENACIO EL AMOR

 TURNING:BEMOL

Esto se toca acústico: "si lo que quieres es que te pida perdon..."

eb|-000--333--222222---|
Bb|-333--333--333333---|
Gb|-xxx--000--000000---| (x4)
Db|-222--000--000000---|
Ab|-222--222--xxxxxx---|
Eb|-000--333--222222---|

 Esto ya se toca metalero:

Eb|---------------------------------------|
Bb|---------------------------------------|
Gb|---------------------------------------|
Db|-22-2----------------------------0---0-|
Ab|-22-2-2-2-2-2-22-2-33-3-3-3-3----------|
Eb|-00-0-2-3-3-3-33-3-55-5-5-5-5-0-2-0-2--|

Eb|-------------------------------------------------------|
Bb|-------------------------------------------------------|
Gb|----------------------------------------2--2--2--2-----|
Db|-22-2----------------------------0---0-----------------|
Ab|-22-2-2-2-2-2-22-2-33-3-3-3-3--------------------------|
Eb|-00-0-2-3-3-3-33-3-55-5-5-5-5-0-2-0-2------------------|

verso 1:" tras asi sera pues nunca nada te falto..."
Eb|-----------------------------------|
Bb|-----------------------------------|
Gb|-----------------------------------|(x4)
Db|-22-2----------------4--7--4--5--4-|
Ab|-22-2-2-2-2-2-22-2-55-55-55-55-55--|
Eb|-00-0-2-3-3-3-33-3-----------------|


precoro: "razones hay..."

Eb|-0*--3--3p2--0*--3--3----2*--|
Bb|-0*--3--3*---0*--3--3----3*--|
Gb|-0*--0--2*-2-0*--0--0----2*--|
Db|-2*--0-----0-2*--0-----0-0*--|
Ab|-2*--2-------2*--2-----------|
Eb|-0*--3-------0*--3-----------|

Coro 1 :" te juro que si estas en fuego"

Eb|---------------------------------|
Bb|---------------------------------|
Gb|-55555--------777777-7/9-9-7-5---|
Db|-55555-55555--777777-7/9-9-7-5---| (x3)
Ab|-33333-55555--555555-5/7-7-5-3---|
Eb|-------33333---------------------|

Eb|------------------------------------|
Bb|------------------------------------|
Gb|-55555-------77777777-55555-------7-|
Db|-55555-55555-77777777-55555-55555-7-|
Ab|-33333-55555-55555555-33333-55555-5-|
Eb|-------33333----------------33333---|

Continuación :

Eb|---------------------------------------|
Bb|---------------------------------------|
Gb|---------------------------------------|
Db|-22-2----------------------------0---0-|
Ab|-22-2-2-2-2-2-22-2-33-3-3-3-3----------|
Eb|-00-0-2-3-3-3-33-3-55-5-5-5-5-0-2-0-2--|

verso 2:"es muy dificil que todo esto pase ya..."

Eb|-----------------------------------|
Bb|-----------------------------------|
Gb|-----------------------------------|(x4)
Db|-22-2----------------4--7--4--5--4-|
Ab|-22-2-2-2-2-2-22-2-55-55-55-55-55--|
Eb|-00-0-2-3-3-3-33-3-----------------|


precoro:"en energia negativa..."

Eb|--------------------|
Bb|--------------------|
Gb|------------0-0-0-0-|
Db|--0----0---4-4-4-4--|  (x4)
Ab|-2-2--2-2-5---------|
Eb|0----3--------------|

Coro 2:"te juro que si estas en fuego..."

Eb|---------------------------------|
Bb|---------------------------------|
Gb|-55555--------777777-7/9-9-7-5---|
Db|-55555-55555--777777-7/9-9-7-5---| (x3)
Ab|-33333-55555--555555-5/7-7-5-3---|
Eb|-------33333---------------------|

Segunda parte del coro 2:

Eb|----------------------|
Bb|----------------------|
Gb|-55555-------77777777-|
Db|-55555-55555-77777777-|(x4)
Ab|-33333-55555-55555555-|
Eb|-------33333----------|

Eb|---------------|
Bb|---------------|
Gb|-55555-------7-|
Db|-55555-55555-7-|
Ab|-33333-55555-5-|
Eb|-------33333---|

**** acompañamiento de la segunda parte del coro ****
Eb|--------------------------------------------------------------|
Bb|-12-10-12----12-10-12-10v--13-12-10--12-10-12----12-10-12-10v-|
Gb|---------12v---------------------------------12v--------------|
Db|--------------------------------------------------------------|
Ab|--------------------------------------------------------------|
Eb|--------------------------------------------------------------|

Eb|---------------------------------------------------|
Bb|-12-10-12----12-10-12-10v--13-12-10--12-10-12------|
Gb|---------12v---------------------------------12v---|
Db|---------------------------------------------------|
Ab|---------------------------------------------------|
Eb|---------------------------------------------------|

-----------------------------------------------------------------------------|
-----------------------------------------------------------------------------|
              CITA EN EL QUIROFANO

  TURNING:ESTANDART (PARA ESTA CANCION NO ES NESESARIO TENERLA EN BEMOL PERO
                    SI LA QUIEREN TOCAR EN BEMOL SOLO SE ADELANTA UN TRASTE)
Intro
Guitarra 1
e|------------------------------------|
B|------------------------------------|
G|------------------------------------|
D|888888-88-88-88-88-888888-88-88-88--|
A|666666-66-66-66-66-666666-66-66-66--|
E|444444-44-44-44-44-444444-44-44-44--|x1
pm

Intro parte 2
Ambas guitarras
e---------------------------------------------------------------------------|
B---------------------------------------------------------------------------|
G---------------------------------------------------------------------------|
D88888-88-88-88-88-888888-88-88-88-88-666666-66-66-66-66-666666666666888888-|
A66666-66-66-66-66-666666-66-66-66-66-333333-33-33-33-33-444444444444666666-|
E44444-44-44-44-44----------------------------------------------------------|


Verso 1:"SI TAN SOLO PUDIERAS ENTENDER...."
Ambas guitarras
e|--------------------------------------|
b|--------------------------------------|
g|----------88888888----------6666-8888-|
d|-66666666-88888888-33333333-6666-8888-|
a|-66666666-66666666-33333333-4444-6666-|
E|-44444444----------11111111-----------|x2

e|--------------------------------------|
b|--------------------------------------|
g|--------------------------------------|
d|----------88888888----------6666-8888-|
a|-66666666-66666666-33333333-4444-6666-|
E|-44444444----------11111111-----------|x1


e|----------------------------------------------------|
b|----------------------------------------------------|
g|----------------------------6666-8888-66666666------|
d|----------88888888----------6666-8888-66666666-6666-|
a|-66666666-66666666-33333333-4444-6666-44444444-6666-|
E|-44444444----------11111111--------------------4444-|x1


Coro
Guitarra 2
e|---------  ---------  ---------  -----------------|
b|---------  ---------  ---------  -----------------|
g|-----5---X2-----5---X2-----5---X2-----5-------5---|
d|---6---6-  ---6---6-  ---6---6-  ---6---6---6---6-|X2
a|---------  -6-------  -3-------  -4-------6-------|
E|-4-------  ---------  ---------  -----------------|

*=Intro parte 2 otra vez, igual=*

Verso 2
Guitarra 2
e|--------------------------------------------------------------------|
b|--------------------------------------------------------------------|
g|-----------------------------------------------------12-12-12-12-12-|
d|-8-8-5-5-8-8-0-0-1-1-0-0-3-3-5-5-5-5-----------------x--x--x--x--x--|
a|--6-6-6-6-6-6-1-1-1-1-1-1-1-1-3-3-6-6-11-11-11-11-11-10-10-10-10-10-|
E|--------------------------------------9--9--9--9--9-----------------|x1

e|------------------------------------------------------------------|
b|------------------------------------------------------------------|
g|--------------------------------------6666-8888-66666666----------|
d|-8-8-5-5-8-8-0-0-1-1-0-0-3-3-5-5-5-5--6666-8888-66666666-66666666-|
a|--6-6-6-6-6-6-1-1-1-1-1-1-1-1-3-3-6-6-4444-6666-44444444-66666666-|
E|---------------------------------------------------------44444444-|x1

Coro
Guitarra 2
e|---------  ---------  ---------  -----------------|
b|---------  ---------  ---------  -----------------|
g|-----5---X2-----5---X2-----5---X2-----5-------5---|
d|---6---6-  ---6---6-  ---6---6-  ---6---6---6---6-|
a|---------  -6-------  -3-------  -4-------6-------|
E|-4-------  ---------  ---------  -----------------|X1

Ambas guitarras
e|----------------------------------------------------------------------------|
B|----------------------------------------------------------------------------|
G|----------------------------------------------------------------------------|
D|88888888888888888888888-88-88-666666-66-66-66-66-6666666-66-66-88-88888-8---|
A|66666666666666666666666-66-66-333333-33-33-33-33-4444444-44-44-66-66666-6---|
E|4444444444444---------------------------------------------------------------|x1


Solo
Guitarra 1
e|-------------------------------|
B|-------------------------------|
G|-------------------------------|
D|666666-88888-5555555-6666-8888-|
A|666666-66666-3333333-4444-6666-|
E|444444-------------------------|x2

guitarra 2
e|------------------------------11v---9h11-13v/15v-16v----15h16-18-16p15-16-|
B|-------------------9-11-13-14---------------------------------------------|
G|---------------8-10-------------------------------------------------------|
D|---------6-8-10-----------------------------------------------------------|
A|------6-8-----------------------------------------------------------------|
D|6-8-10--------------------------------------------------------------------|

e|(t16)-13-(t16)-11-(t16)-9-(t16)-8-(t16)-6-(t16)-4---/13-/13-11v-----------|
B|--------------------------------------------------------------------------|
G|--------------------------------------------------------------------------|
D|--------------------------------------------------------------------------|
A|--------------------------------------------------------------------------|
E|--------------------------------------------------------------------------|

e|--------------------------------------------------------------------------|
B|---------------------------------------------16b18-(17)-16b18-16----------|
G|-/17p15p11-----/17p15p11------/17p15p11-----------------------------------|
D|----------15-11---------15p11----------15p11------------------------------|
A|--------------------------------------------------------------------------|
E|--------------------------------------------------------------------------|
robame el dolor...
e|------------------------------------------------------------16----------14h16b18r16-16p14h16-18b20--|
B|-18b19r18-16--16-------------------------------16v--16-18-20--20p18-16h18---------------------------|
G|------------17--17p15--15------------------15b17----------------------------------------------------|
D|---------------------17--17p15--------15h17---------------------------------------------------------|
A|------------------------------13-15-17--------------------------------------------------------------|
E|----------------------------------------------------------------------------------------------------|

Coro
Ambas guitarras
e|--------------------------------------|
b|--------------------------------------|
g|----------88888888-55555555-6666-8888-|
d|-66666666-88888888-55555555-6666-8888-|
a|-66666666-66666666-33333333-4444-6666-|
E|-44444444-----------------------------|x1

e|-------------------------------------------------|
b|-------------------------------------------------|
g|----------88888888-55555555-6666-----------------|
d|-66666666-88888888-55555555-6666-8888-88-8888-88-|
a|-66666666-66666666-33333333-4444-6666-66-6666-66-|
E|-44444444----------------------------------------|x1

Outro
Ambas guitarras
e|--------------------------------------------------------------|
B|--------------------------------------------------------------|
G|--------------------------------------------------------6-8-6-|
D|88888-88-88-88-88-888888-88-88-88-88-666666-66-66-66-66-6-8-6-|
A|66666-66-66-66-66-666666-66-66-66-66-333333-33-33-33-33-4-6-4-|
E|44444-44-44-44-44---------------------------------------------|x1



                    YA NO ES SUFICIENTE LAMENTAR

 TURNING:ESTANDART

ACORDES:> A Bb B F#m Dm6

Estoy un poco indeciso con el segundo tono, por eso les pongo
otra opcion, juzguen a ver con cual se escucha mejor jeje.

Intro: A Bb

A                                   Bb
Que tan dificil es dejarlo todo atras
F#m           B                    A
No fue suficiente lo que te pude dar

A                                   Bb
No es verdad te juro que no es verdad
A                                 Bb
Eso que dices que hice no es verdad
F#m                 B                 A
Es tan dificil confiar con inseguridad
F#m              B          A
Ya no es suficiente lamentar

Bueno eso es toda la rola, en realidad esta muy facil
Aqui les van los acordes

         A       Bb     F#m      B      Dm6
E |------0-------1-------9-------7-------1|
B |------2-------3------10-------7-------0|
G |------2-------3------11-------8-------2|
D |------2-------3------11-------9-------0|
A |------0-------1-------9-------9--------|
E |------------------------------7--------|



                             3+1

intro:
guitarra 1
e|-------14-13-------|
B|-----14------14----|
G|---13--------------|
D|/11----------------|X4
A|-------------------|
E|-------------------|
guitarra 2
e|-----------------------------------------------------------------|
B|-----------------------------------------------------------------|
G|-6*-/3-----------------------------------------------------------|
D|-6*-/3-----------------------------------------------------------|
A|-4*-/1--44-4-44-4-44-4-88-8-88-8-88-8-88-8-66-6-66-6-66-6--------|
E|--------22-2-22-2-22-2-66-6-66-6-66-6-66-6-44-4-44-4-44-4--------|
          ..   ..   ..   ..   ..   ..   ..   ..   ..   ..
continuado:
e---------------------------------6v4---------6/9-8-9-11p9p8----------------|
B---4---46b7r6-4-----4----46b7r6-4----7-6b7-6-4-------------11p9p8----------|
G/6v-6-6--------6-3-6-66-6----------------------------------------10p8------|
D---------------------------------------------------------------------10p8p6|
A---------------------------------------------------------------------------|
E---------------------------------------------------------------------------|
guitarra 2 sigue los mismos acordes
verso:
e|----------------------------------------------|
B|----------------------------------------------|
G|6---------------------------------------------|
D|6----8----6---4-------------------------------|
A|4----8----6---4-------------------------------|
E|-----6----4---2-------------------------------|

e|-----------------------------------------|
B|-----------------------------------------|
G|-----------------------------------------|
D|8888888-6666666-444444-------------------|
A|8888888-6666666-444444-------------------|
E|6666666-4444444-222222-------------------|

me canse de ti
coro:
e|-------------------------------------------------------------------|
B|-------------------------------------------------------------------|
G|-666-333-----------------------------------------------------------|
D|-666-333-----------------------------------------------------444---|
A|-444-111--44-4-44-4-44-4-88-8-88-8-88-8-88-8-66-6-66-6-66-6--444---|
E|----------22-2-22-2-22-2-66-6-66-6-66-6-66-6-44-4-44-4-44-4--222---|
guitarra 2
e|--------------------------------------------------------------------------|
B|--------------------------------------------------------------------------|
G|10-11-10-10-11-15-13-11-10------------------------------------------------|
D|x--x--x--x--x--x--x--x--x-------------------------------------------------|
A|8--9--8--8--9--13-11-9--8-------------------------------------------------|
E|--------------------------------------------------------------------------|
verso (x1)
coro(x1)
GUITARRA 2:
e|--------------------------------------6v-4----------6/9-8-6-5b6-4---------|
B|----4----4-6b7r6-4------4----4-6b7r6-4----7-6b7-6-4---------------7p6-4---|
G|/6v---6-6----------6-3-6-66-6------------------------------------------6--|
D|--------------------------------------------------------------------------|
A|--------------------------------------------------------------------------|
E|--------------------------------------------------------------------------|

e|--------------------------------------------------------------------------|
B|----4----4-6b7r6-4------4----4-6b7r6-4------------------------------------|
G|/6v---6-6----------6-3-6-66-6---------6-----------------------------------|
D|--------------------------------------------------------------------------|
A|--------------------------------------------------------------------------|
E|--------------------------------------------------------------------------|
outro:
e|44444-1111-22222--11111--44444--------------------------------------------|
B|4444--2222-22222--22222--44444--------------------------------------------|
G|6666--3333-33333--33333--77777--------------------------------------------|
D|6666--3333-44444--33333--66666--------------------------------------------|
A|4444--1111-44444--11111--66666--------------------------------------------|
E|-----------22222---------44444--------------------------------------------|


                  MI HURACAN LEVABA TU NOMBRE


Intro:
2 veces
Guitarra 1

Eb|-7-7-7(x6)--676----------------------------------------66666-6-6---------|
Bb|---------------799999-9-9-99999-797--------------------------------------|
Gb|-----------------------------------899999-9-9-88888-9-8---------6-4-3-4-3|
Db|-------------------------------------------------------------------------|
Ab|-------------------------------------------------------------------------|
Eb|-------------------------------------------------------------------------|

Guitarra 2
2 veces
Eb|---------------------------------------------------------------------------|
Bb|---------------------------------------------------------------------------|
Gb|---------------------------------------------------------------------------|
Db|66666-6-6666-6-6-99999-9-9-99999-9-9-66666-6-6-44444-4-4-44444-4-4-4444444-|
Ab|66666-6-6666-6-6-77777-7-7-77777-7-7-44444-4-4-22222-2-2-44444-4-4-4444444-|
Eb|44444-4-4444-4-4-----------------------------------------22222-2-2-2222222-|

1er verso:

    siento...           siento...           algo le tendré que hacer no soy de papel...
Eb|---------------------------------------------------------------------------|
Bb|---------------------------------------------------------------------------|
Gb|---------------------------------------------------------------------------|
Db|666666666666-66-99999-99-9999-99-11-11-11-11-11-11-11-11-11-11-11-11-11-11-|
Ab|666666666666-66-99999-99-9999-99-11-11-11-11-11-11-11-11-11-11-11-11-11-11-|
Eb|444444444444-44-77777-77-7777-77-9--9--9--9--9--9--9--9--9--9--9--9--9--9--|
    (                                          palm mute                                 
)
Eb|------------------|
Bb|------------------|
Gb|------------------|
Db|-4-4-4-4-4-4444---|
Ab|-4-4-4-4-4-4444---|
Eb|-2-2-2-2-2-2222---|
     (pm)(pm) (pm)

Precoro:

    te prometo me va a encantar       la manera en que dolera
Eb|------------------------------------------------------------------|
Bb|------------------------------------------------------------------|
Gb|------------------------------------------------------------------|
Db|-2/-------4/-------6------444444---2/----4/---------6-----444444--|
Ab|--------------------------444444--------------------------444444--|
Eb|--------------------------222222--------------------------222222--|

Coro:
    hace... atras...    tu eras mi  huracan...
Eb|-------------------------------------------------------------------|
Bb|-------------------------------------------------------------------|
Gb|-------------------------------------------------------------------|
Db|-99999-9-9-99999-9-9-----------------------------------------------|
Ab|-99999-9-9-77777-7-7-1111111111-11-11-44444-444--------------------|
Eb|-77777-7-7-----------9-9-9-9-9--9--9--22222-222--------------------|

luego sigue:

Intro
Verso 2
Precoro 2
Coro 2

Precoro 3:

    te prometo me va a encantar       la manera en que dolera
Eb|---------------------------------------------------------------|
Bb|---------------------------------------------------------------|
Gb|---------------------------------------------------------------|
Db|-2/-------4/-------6/------8/------2/----4/---------6/----8----|
Ab|---------------------------------------------------------------|
Eb|---------------------------------------------------------------|
    te prometo me va a encantar...
Eb|---------------------------------|
Bb|---------------------------------|
Gb|---------------------------------|
Db|-999999888888--6666664444444-----|
Ab|-777777666666--4444444444444-----|
Eb|---------------------2222222-----|

Ultimo coro:

    hace...    atras...          tu eras mi      huracan...
Eb|---------------------------------------------------------------|
Bb|---------------------------------------------------------------|
Gb|---------------------------------------------------------------|
Db|-1111111111111111-11111111111111-13-13-13-13-13-13-13-6666666--|
Ab|-1111111111111111-9-9-9-9-9-9-9--13-13-13-13-13-13-13-6666666--|
Eb|-9-9-9-9-9-9-9-9-----------------11-11-11-11-11-11-11-4444444--|

final
Eb|---
Bb|---
Gb|---
Db|-7-
Ab|-7-
Eb|-6-



                  PROMESAS/DECEPCIONES


  TURNING:ESTANDART
Intro:
e-----------------------|
B-----------------------|
G-----------------------|
D-2---2---2---2---------|
A-4-4---4---4-4---------|
E-----------------------|
Que equivocados estabamos al...

e-----------------------|
B-----------------------|
G-----------------------|
D-2---2---2---2---------|
A-4-4---4---4-4---------|
E-5-----------5---------|
... Pensar que la eternidad iba...
e------------------------------------------|
B------------------------------------------|
G---------------------4-4-4--4--4-4-4--4---|
D-4-4-4--4--4-4-4--4--4-4-4--4--4-4-4--4---|
A-4-4-4--4--4-4-4--4--2-2-2--2--2-2-2--2---|
E-2-2-2--2--2-2-2--2-----------------------|
Ser Para siempre esta Estare...

Verso:
Guitarra 1
Cuando la guitarra 1 hace estas notas, abajo, la
Guitarra 2 toca las notas Do# y La

e----------------------------|
B------5-----5----5------5---|
G----------------------------| Me prometiste y me mentiste
D---6----6-----6------6------|
A-4----4-----4------4--------|
E----------------------------|
 Pm... Pm..  Pm..   Pm..
 Guitarra 2: Nota *Do#* en Palm Mute

e----------------------------|
B------5-----5----5------5---|
G----------------------------| Te prometi nunca menti
D---6----6-----6------6------|
A-0----0-----0------0--------|
E----------------------------|
  La Guitarra 1: Nota *La* en Palm Mute

e------------------------------------------|
B------------------------------------------|
G---------------------4-4-4--4--4-4-4--4---|
D-4-4-4--4--4-4-4--4--4-4-4--4--4-4-4--4---|
A-4-4-4--4--4-4-4--4--2-2-2--2--2-2-2--2---|
E-2-2-2--2--2-2-2--2-----------------------|
Fijate un castigo haz de merecer

Esta parte se toca pasando muy rapidamente

e-9-----11-------12-------14----s----16--14--11--9----|
Decepcion es algo que no hubo entre los dos

e-9-----11-------12-----------------------------------|
B--------------------9---7----------------------------|
Y al final tu lo hiciste algo real

e-9-----11-------12-------14----s----16--14--11--9------|
Tacha todas las veces que te dije algo desde este corazon...

e------------------------------------------|
B------------------------------------------|
G------------------------------------------|
D-7-7-7--7--7-7-7--7--9-9-9--9--9-9-9--9---|
A-7-7-7--7--7-7-7--7--9-9-9--9--9-9-9--9---|
E-5-5-5--5--5-5-5--5--7-7-7--7--7-7-7--7---|

         Retiro lo Dichooooo...
Coro:
e-------------------------------------|
B-------------------------------------|
G-6-6-6-4-s-6-6-----------------------|
D-6-6-6-4-s-6-6--2-----4-------7--9---|
A-4-4-4-2-s-4-4--2-----4-------7--9---|
E----------------0-----2-------5--7---|

Verso 2: guitarra 1 toka punteo acompañado de la bateria y Bajo
Nota: El bajo hace las mismas notas k pepe antes... Do# y La

e----------------------------|
B------5-----5----5-----5----|
G----------------------------| Agradece y pide que todo
D---6----6-----6-----6-------|
A-4----4-----4-----4---------|
E----------------------------|

e----------------------------|
B------5-----5----5-----5----|
G----------------------------| lo que te deseo nunka jamas
D---6----6-----6------6------|
A-0----0-----0------0--------|
E----------------------------|

e---------------------------|
B------2-----2----2----2----|
G---------------------------| se haga realidad
D---4----4-----4-----4------|
A-4----4-----4-----4--------|
E---------------------------|

e---------------------------|
B------4-----4----4----4----|
G---------------------------|
D---4----4-----4-----4------|
A-2----2-----2-----2--------|
E---------------------------|

e----------------------------|
B------5-----5----5-----5----|
G----------------------------| Destrozaste mi sueño con tu orgullo
D---6----6-----6-----6-------|
A-4----4-----4-----4---------|
E----------------------------|

e----------------------------|
B------5-----5----5-----5----|
G----------------------------| Te arrepentiras
D---6----6-----6------6------|
A-0----0-----0------0--------|
E----------------------------|

Luego la parte k dice:
"Decepcion es algo k no hubo entre los dos"
son las misma notas y punteo k sale arriba

"Retiro lo Dicho..."

* Coro: 2 veces

"Muchas veces me encagaste tus promesas..."

Se toka el intro ahora version un pokito rapido y luego:

e----------------------------|
B------5-----5----5------5---|
G----------------------------|
D---6----6-----6------6------|
A-4----4-----4------4--------|
E----------------------------|

e-----------------------|
B-----------------------|
G-----------------------|
D-2---2---2---2---------|
A-4-4---4---4-4---------|
E-5-----------5---------|

Silencio
-----------------------------------------

 2da Guitarra
e----------------------------------|
B----------------------------------|
G-6-6-6-6-s-4-2-2-2-2--4-s-6-6-6---|
D-6-6-6-6-s-4-2-2-2-2--4-s-6-6-6---|
A-4-4-4-4-s-2-0-0-0-0--2-s-4-4-4---|
E----------------------------------|

 1ra Guitarra
e------------------------------------------------------------|
B------------------------------------------------------------|
G-9-9-9-9-s-8-6-6-6-6-6-s-8-9-9-9-9-s-11-13-13-13-14-13-11---|
D-x-x-x-x-s-x-x-x-x-x-x-s-x-x-x-x-x-s-x--x--x--x--x--x--x----|
A-7-7-7-7-s-6-4-4-4-4-4-s-6-7-7-7-7-s-9--11-11-11-12-11-9----|
E------------------------------------------------------------|
 sigue el bajo
e-------------------------------------------|
B-------------------------------------------|
G-------------------------------------------| Se repite hasta
D-------------------------------------------| llegar a la parte
A-4--4--4--2--0--0--0h2--4--4--4--0--0--0---| donde kanta Pepe
E-------------------------------------------|

y luego:
e-12-12-12-12-12--|

e-------------------------------------------|
B-------------------------------------------|
G-------------------------------------------|
D-------------------------------------------| Se repite hasta terminar
A-4--4--4--2--0--0--0h2--4--4--4--0--0--0---|
E-------------------------------------------|
No naci para amar y aprendi que solo causa mal
no naci para amar, batalle pero te deje entrar

Ahora se toka las notas "La" y "Si" 2 veces

"Retiro lo dicho"...

Se repite el Coro y luego el final termina en "Mi"

e-----------------------|
B-----------------------|
G-----------------------|
D-2---------------------|
A-2---------------------|
E-0---------------------|



                      CUANDO NO ES COMO DEBIERA DE SER


 TURNING:BEMOL

INTRO:Lam FaM SolM DoM Lam FaM SolM DoM Mi7 (primera guitarra)
              Riff 1
e-----3-----3-----3-----3-----3-----3-1-0--------------|
B-0-1---0-1---0-1---0-1---0-1---0-1-------3-1-0--------|
G------------------------------------------------------|
D------------------------------------------------------| x2
A------------------------------------------------------|
E------------------------------------------------------|

   (en ves del bajo yo hago las notas con quinta)
  La5       Fa5
  ya no volveremos a hablar
           Sol5            DO5       Mim       La5
  nos volveremos tampoco a ver (fue tu decision)
            Fa5                   Sol5
  quize pedirte perdon por tantas cosas
          Do5   Mim
  que ni realice
  La5      Fa5          Sol5
  pero ya no ya lo pense
            Do5     Mim
  me duele tanto decirlo
  La5         Fa5
  pero no se dio
           Sol5
   ya lo pense
         DoM         Mi7
   mi dignidad es primero

             Riff 2
e-------15-------15-------15-------15-------15-------15-13-12-10-8-7--|
B-12-13----12-13----12-13----12-13----12-13----12-13------------------|
G---------------------------------------------------------------------|
D---------------------------------------------------------------------|
A---------------------------------------------------------------------|
E---------------------------------------------------------------------|

e-------15-------15-------15-------15-------15-------15-16-15-13-12-13-|
B-12-13----12-13----12-13----12-13----12-13----12-13-------------------|
G----------------------------------------------------------------------|
D----------------------------------------------------------------------|x2
A----------------------------------------------------------------------|
E----------------------------------------------------------------------|

Lam   FaM           SolM
   tal vez asi es mejor
      DoM
   odiame
Lam       FaM          SolM
  tal vez asi es mejor
        DoM       Mi7
  recuerdas que facil es
Lam    FaM          SolM
  tal vez asi es mejor
      DoM
  odiame
Lam    FaM           SolM   DoM Mi7
  pues ya tranquilo estoy wuoh

  La5           Fa5
  si existe un modo para que tu
       Sol5             Do5   MIm
  me puedas hacer muy feliz(quiero ser feliz)
La5   Fa5                     Sol5
  lo unico que tu tienes que hacer
               Do5  Mim
  amor mio es morir
La5             Fa5
  y llorare por ti
            Sol5         Do5    Mim
  pues esta es la forma mas sencilla
       La5          Fa5
  para no pensar en ti
          Sol5         DoM        Mi7
  poder ahorrar mis lagrimas se terminan

  (con riff 2)
Lam     FaM        SolM     DoM
  tal vez asi es mejor odiame
Lam     FaM        SolM     DoM      Mi7
  tal vez asi es mejor recuerda que facil
  Lam      FaM        SolM    DoM
  es tal vez asi es mejor odiame
Lam    FaM           SolM   DoM Mi7
  pues ya tranquilo estoy wuoh

Fa#5  Fa5        Fa#5     Sol5
  ya no queria darte la razon
Fa#5  Fa5       Fa#5       Sol5
  pero queria cambiar tu opinion
  Fa#5     Fa5           Fa#5
  (no me agrada hablarte asi, desprecio
      Sol5       Fa#5         Fa5       Fa#5
  me haces tu sentir, multiplicalo por mil,
        Sol5         La5
  eso mereces tu de mi)
       Fa5         Sol5    Do5 Mim
  tal vez asi es mejor odiame
La5    Fa5         Sol5    Do5       Mim
  tal vez asi es mejor recuerda que facil
 Lam      FaM         SolM    DoM
  es tal vez asi es mejor odiame
  Lam    FaM         SolM   DoM Mi7
  pues ya tranquilo estoy wuoh

  TERMINA CON NOTAS DEL CORO Y RIFF 2



                      MIEDO A LAS ALTURAS


eb|-----------------------------------------------------|
Bb|-----------------------------------------------------|
Gb|------5-------5--------------------------------------|
Db|---3------3---------3--------------------------------|
Ab|-5--5---5---5----5----5------------------------------|
Eb|---------------------------1-1-1-1--3-3-3-3---3-3----|

eb|-----------------------------------------------------|
Bb|-----------------------------------------------------|
Gb|------5-------5--------------------------------------|
Db|---3------3---------3--------------------------------|
Ab|-5--5---5---5----5----5------------------------------|
Eb|---------------------------1-1-1-1--3-3-3-3----------|


Verso 1  GUITARRA 1
eb|----------------|
Bb|----------------|
Gb|--7-----------5-|
Db|--7---8---3---5-|
Ab|--5---8---3---3-|
Eb|------6---1-----|
"Te acuerdas cuando me dijiste
dificil se pondra eso..."

  GUITARRA2 (x2)
eb|---------------------|
Bb|---------------------|
Gb|--5555---5555---5-5--|
Db|---------------------|
Ab|--5555---5555---5-5--|
Eb|---------------------|
  |
eb|---------------------|
Bb|---------------------|
Gb|---------------------|
Db|-3333---5555---55----|
Ab|---------------------|
Eb|-1111---3333---33----|

  GUITARRA 1 (x2)
eb|---------------------|
Bb|---------------------|
Gb|--5555---5555---5-5--|
Db|---------------------|
Ab|--5555---5555---5-5--|
Eb|---------------------|

eb|---------------------|
Bb|---------------------|
Gb|---------------------|
Db|--7777---9999---99---|
Ab|--7777---9999---99---|
Eb|--5555---7777---77---|


Verso 2 (Con Palm Mute)
eb|----------------|
Bb|----------------|
Gb|--7-----------5-|
Db|--7---8---3---5-|
Ab|--5---8---3---3-|
Eb|------6---1-----|
"El daño que causaste era lo unico
que me podia matar..."

coro 1
eb|-------------------------------------------------------------|
Bb|-------------------------------------------------------------|
Gb|-3----------------5--------10-10-10-10-9-9-9-9---7-7-7-7-7-7-|
Db|-3----------------5--------10-10-10-10-9-9-9-9---------------|
Ab|-1----------------3--------8--8--8--8--7-7-7-7---5-5-5-5-5-5-|
Eb|-------------------------------------------------------------|
    y de la muerte   yo regresare y te buscareeeeeee

eb|-----------------------------------------------------------|
Bb|-----------------------------------------------------------|
Gb|-33333333-----------55555555-----10-10-10-9-9-9--7-7-7-7-7-|
Db|-33333333-----------55555555-------------------------------|
Ab|-11111111-----------33333333-----8--8--8--7-7-7--5-5-5-5-5-|
Eb|-----------------------------------------------------------|
    te llevare conmigo de regreso y recuuuuuuupeeraareeeeee

eb|------------------------------------------------------------|
Bb|------------------------------------------------------------|
Gb|---------33333333----55555555-------------------------------|
Db|---------33333333----55555555-------------------------------|
Ab|---------11111111----33333333-------------------------------|
Eb|------------------------------------------------------------|
   la vida me robasteeee


  GUITARRA 2 (x2)
eb|---------------------|
Bb|---------------------|
Gb|--5555---5555---5-5--|
Db|---------------------|
Ab|--5555---5555---5-5--|
Eb|---------------------|
  |
eb|---------------------|
Bb|---------------------|
Gb|---------------------|
Db|-3333---5555---55----|
Ab|---------------------|
Eb|-1111---3333---33----|

  GUITARRA 1 (x2)
eb|---------------------|
Bb|---------------------|
Gb|--5555---5555---5-5--|
Db|---------------------|
Ab|--5555---5555---5-5--|
Eb|---------------------|
  |
eb|---------------------|
Bb|---------------------|
Gb|---------------------|
Db|--7777---9999---99---|
Ab|--7777---9999---99---|
Eb|--5555---7777---77---|

 LUEGO ES ESTO:
eb|--------------------------------------------------------------------||
Bb|-------10---------10-----------------8---------8--------------------||
Gb|----10--------10---------10-------9---------9---------9-------------||
Db|-10--------10---------10------10--------10---------10---------------||
Ab|--------------------------------------------------------------------||
Eb|--------------------------------------------------------------------||

eb|--------------------------------------------------------------------||
Bb|-------6------6------------5------5---------------------------------||
Gb|----7-------7------7-----5------5--------5--------------------------||
Db|--7-------7------7-----5------5--------5----------------------------||
Ab|--------------------------------------------------------------------||
Eb|--------------------------------------------------------------------||
"Vida se va, eso me ayuda a pensar
Aquellas luces brillantes no me mataran
Solos tu y yo..."

Coro 2
eb|-------------------------------------------------------------|
Bb|-------------------------------------------------------------|
Gb|-3----------------5--------10-10-10-10-9-9-9-9---7-7-7-7-7-7-|
Db|-3----------------5--------10-10-10-10-9-9-9-9---------------|
Ab|-1----------------3--------8--8--8--8--7-7-7-7---5-5-5-5-5-5-|
Eb|-------------------------------------------------------------|
  no fue tan hondo el pozo pues ya estoy    saliendo  de el

eb|-----------------------------------------------------------------|
Bb|-----------------------------------------------------------------|
Gb|-33333333-----------55555555-----10-10-10-10-9-9-9-9---7-7-7-7-7-|
Db|-33333333-----------55555555-----10-10-10-10-9-9-9-9-------------|
Ab|-11111111-----------33333333-----8--8--8--8--7-7-7-7---5-5-5-5-5-|
Eb|-----------------------------------------------------------------|
  se te acaban los lugares         donde te puedas esconder

eb|------------------------------------------------------------|
Bb|------------------------------------------------------------|
Gb|---------33333333----55555555-------------------------------|
Db|---------33333333----55555555-------------------------------|
Ab|---------11111111----33333333-------------------------------|
Eb|------------------------------------------------------------|
  donde te puedas esconder


  GUITARRA 2 (x2)
eb|---------------------|
Bb|---------------------|
Gb|--5555---5555---5-5--|
Db|---------------------|
Ab|--5555---5555---5-5--|
Eb|---------------------|
  |
eb|---------------------|
Bb|---------------------|
Gb|---------------------|
Db|-3333---5555---55----|
Ab|---------------------|
Eb|-1111---3333---33----|

  GUITARRA 1 (x2)
eb|---------------------|
Bb|---------------------|
Gb|--5555---5555---5-5--|
Db|---------------------|
Ab|--5555---5555---5-5--|
Eb|---------------------|
  |
eb|---------------------|
Bb|---------------------|
Gb|---------------------|
Db|--7777---9999---99---|
Ab|--7777---9999---99---|
Eb|--5555---7777---77---|


Solo (Asi es el orden conforme se van escuchando)
  GUITARRA 1
eb|---------------------|
Bb|---------------------|
Gb|------9-10-9---------|
Db|-10-12------12-------|
Ab|---------------------|
Eb|---------------------|

  GUITARRA 2
eb|---------------------|
Bb|-------11-13-11------|
Gb|-12-14----------14---|
Db|---------------------|
Ab|---------------------|
Eb|---------------------|

   GUITARRA 3
eb|--------14-15-14-----|
Bb|--15-17----------17--|
Gb|---------------------|
Db|---------------------|
Ab|---------------------|
Eb|---------------------|

   GUITARRA 4
eb|---------------------|
Bb|---------------------|
Gb|---------------------|
Db|-------7-8-7---------|
Ab|--8-10-------10------|
Eb|---------------------|

 luego del Solo
eb|xx15-15-xx15-15-xx15-15-|
Bb|xxx--x--xxx--x--xxx--x--|
Gb|xx12-12-xx12-12-xx12-12-| x4
Db|------------------------|
Ab|------------------------|
Eb|------------------------|


Verso 3
eb|----------------|
Bb|----------------|
Gb|--7-----------5-|
Db|--7---8---3---5-|
Ab|--5---8---3---3-|
Eb|------6---1-----|
si tu te vas nunca olvides que yo te recordare
se muy bien que al final tu y yo estaremos juntos...

 Y TERMINA ASI
eb|----|
Bb|----|
Gb|--5-|
Db|--5-|
Ab|--3-|
Eb|----|
Recordare...



                   HASTA EL FINAL

 TURNING:BEMOL
Intro:

guitarra 2
eb|-----------------------------------|
Bb|-----------------------------------|
Gb|--4444-----------------------------|
Db|--4444-4444-6666-22-44-------------|X2
Ab|--2222-4444-6666-22-44-------------|
Eb|-------2222-4444-00-22-------------|

 guitarra 1
eb|-----------------------------------------------------|
Bb|----12----12-11-12---------16-14-12-14-12-11---------|
Gb|-------11------------(x3)----------------------------|
Db|-----------------------------------------------------|
Ab|-----------------------------------------------------|
Eb|-----------------------------------------------------|

eb|---------------------------------------12-11~--------|
Bb|----12----12-11-12---------16-14-12-14---------------|
Gb|-------11------------(x3)----------------------------|
Db|-----------------------------------------------------|
Ab|-----------------------------------------------------|
Eb|-----------------------------------------------------|


Verso: todo x2

eb|------------------------------------------------|
Bb|------------------------------------------------|
Gb|--(4)(4)-4--------------------------------------|
Db|--(4)(4)-4—(4)(4)(4)-4—(6)(6)-6-(2)(2)(2)-4-----|X2
Ab|--(2)(2)-2—(4)(4)(4)-4—(6)(6)-6-(2)(2)(2)-4-----|
Eb|-----------(2)(2)(2)-2—(4)(4)-4-(0)(0)(0)-2-----|
  (Los acordes entre paréntesis son con palm mute)

eb|--------------------------------------------|
Bb|--------------------------------------------|
Gb|--------------------------------------------|
Db|--4444—-------------------------------------|X1
Ab|--2222—4444-6666-22-44----------------------|
Eb|-------2222-4444-00-22----------------------|

eb|--------------------------------------------|
Bb|--------------------------------------------|
Gb|--------------------------------------------|
Db|--4444—-----------------2-------------------|X1
Ab|--2222—4444-6666-2222-4-2-------------------|
Eb|-------2222-4444-0000-2-0-------------------|

coro:

segunda guitarra:

eb|--------------------------------------------|
Bb|--------------------------------------------|
Gb|--44444444----------------------------------|
Db|--44444444-44444444-66666666-2222-4444------|X2
Ab|--22222222-44444444-66666666-2222-4444------|
Eb|-----------22222222-44444444-0000-2222------|

Primera guitarra:

eb|-----------------------------------------------------|
Bb|-11-12----12-11-12----12-11-12----12/16-16-14-12-11--| x4
Gb|-------11----------11----------11--------------------|
Db|-----------------------------------------------------|
Ab|-----------------------------------------------------|
Eb|-----------------------------------------------------|

 LUEGO SIGUE:
Intro
Verso
Coro
Puente
No tienes una idea d la soledad...
eb|------------------------------------------|
Bb|------------------------------------------|
Gb|--------------------44444444--------------|
Db|--66666666-22222222-44444444-44444444-----|X4
Ab|--66666666-22222222-22222222-44444444-----|
Eb|--44444444-00000000----------22222222-----|

Levante:

eb|-----------------------------------|
Bb|-----------------------------------|
Gb|-----------------------------------|
Db|-22222222222222222222--------------|X1
Ab|-22222222222222222222--------------|
Eb|-00000000000000000000--------------|

Outro:

Segunda guitarra:

eb|-----------------------------------|
Bb|-----------------------------------|
Gb|--4444-----------------------------|
Db|--4444-4444-6666-22-44-------------|
Ab|--2222-4444-6666-22-44-------------|
Eb|-------2222-4444-00-22-------------|

Primera guitarra:

eb|-----------------------------------------------------------|
Bb|------12----11----12----------16-14-12-14-12-11------------|
Gb|---11----11----11----11-(x3)--------------------13-11------|
Db|-----------------------------------------------------------|
Ab|-----------------------------------------------------------|
Eb|-----------------------------------------------------------|



           NO TIENES OPORTUNIDAD CONTRA MI ANTIPATICA IMAGINACIÓN

 TURNING:ESTANDART

Los acordes estan en quintas, asi que chequenlas bien:

   C# F# A# G#
e|--------------|
B|--------------|
G|-6------------|
D|-6--4--8--6---|
A|-4--4--8--6---|
E|-x--2--6--4---|

-Riff 1
      C#      F#       A#       G#
e|---------------------------------------|
B|---------------------------------------|
G|-66666666------------------------------|
D|-66666666-44444444-88888888-66666666---| x2
A|-44444444-44444444-88888888-66666666---|
E|-xxxxxxxx-22222222-66666666-44444444---|

-Riff 2
    F#    G#    C#    A#
e|---------------------------|
B|---------------------------|
G|-------------6666----------|
D|-4444-666666-6666-888888---| x3
A|-4444-666666-4444-888888---|
E|-2222-444444-xxxx-666666---|
P.M..... ....  ..... .....
    F#    G#
e|-------------|
B|-------------|
G|-------------|
D|-4444-666666-|
A|-4444-666666-|
E|-2222-444444-|

-Coro
      C#      A#       F#       G#
e|---------------------------------------|
B|---------------------------------------|
G|-66666666------------------------------|
D|-66666666-88888888-44444444-66666666---| x2
A|-44444444-88888888-44444444-66666666---|
E|-xxxxxxxx-66666666-22222222-44444444---|

-Riff 3


e|-------------------------------------------------|
B|--9--9-9--9-9-9-9-9-9-11--7--7-7--7-7-7-7-7-7-11-|
G|--x--x-x--x-x-x-x-x-x-x---x--x-x--x-x-x-x-x-x-x--|
D|--6--6-6--6-6-6-6-6-6-8---4--4-4--4-4-4-4-4-4-8--|
A|-------------------------------------------------|
E|-------------------------------------------------|


e|-------------------------------------------------|
B|--7--7-7--7-7-7-7-7-7-11-9-9-9-9-11-11-9-9-------|
G|--x--x-x--x-x-x-x-x-x-x--x-x-x-x-x--x--x-x-------|
D|--4--4-4--4-4-4-4-4-4-8--6-6-6-6-8--8--6-6-------|
A|-------------------------------------------------|
E|-------------------------------------------------|

-Riff 4
solo

   C#                               C# F#
e|------------------------------------------|
B|-14-2-2-13-2-2-14-2-2-16-2-2-14-2-13-2----|
G|------------------------------------------|
D|------------------------------------------|
A|------------------------------------------|
E|------------------------------------------|

                                                   x2
   A#                               F# G#
e|------------------------------------------|
B|-14-2-2-13-2-2-14-2-2-13-2-2-11-2-2-2-----|
G|------------------------------------------|
D|------------------------------------------|
A|------------------------------------------|
E|------------------------------------------|


Outro

e|-----------------------------|
B|--9--9-9--9-9-9-9-9-9-11-----|
G|--x--x-x--x-x-x-x-x-x-x---4--|
D|--6--6-6--6-6-6-6-6-6-8---4--|
A|--------------------------6--|
E|-----------------------------|

Orden:

Riff 1
Riff 2
Coro
Riff 3
Riff 1
Riff 2
Coro
Riff 4
Coro (Sin Guitarra hasta el 2º verso)
Coro
Outro

_ _ _ _ _ _ _ _ _ _ _ _ _ _ _ _ _ _ _ _ _ _ _ _ _


Letra:

       C#
Lo que hagas con tu tiempo esta bien
      A#                         G#
yo nunca me gastare el mío otra vez
       C#                            F#
dices tu que pierdo el tiempo sin parar
        A#                   G#
pues contigo lo perdía nada mas

F#   G#           C#             G#
creeme que aprendí a ya no perdonar
F#   G#           C#                    G#
creeme tu te acabaste toda toda mi bondad
F#    G#            C#         G#      F#
ahora solo espero verte con alguien mas
           G#
para comenzar


         C#
Y ya no verte mas
         A#
Ya para de llorar
         F#                   G#
Te juro que algún día te arrepentirás
        C#                     A#
Eso estaría mejor pues mi imaginación
           F#                  G#
Podría desearte algo que es mucho peor

C#  F#  A#  G#

C                            F#
Quiero verte ya con alguien mas
          A#                   G#
y asi envenenar el aire ambiental
      C#                        F#
Solo tu sabes como hacerme llorar
         A#                   G#
y a la tumba el secreto llevaras

F#   G#           C#             G#
Creeme que ya he olvidado como es eso de querer
F#   G#           C#             G#
creeme que ya he cambiado ya no soy lo que tu crees
F#          G#              C#   G#      F#
Me he convertido en todo un cínico asi es
             G#
Te lo debo a ti


        C#
Y ya no verte mas
        A#
Ya para de llorar
         F#                   G#
Te juro que algún día te arrepentirás
         C#                    A#
Eso estaría mejor pues mi imaginación
            F#                  G#
Podría desearte algo que es mucho peor

C#  C#-F#  A#  F#-G# x2


Y ya no verte mas

Ya para de llorar

Te juro que algún día te arrepentirás
         C#                    A#
Eso estaría mejor pues mi imaginación
            F#                  G#
Podría desearte algo que es mucho peor

Y ya no verte...

(quiero verte ya con alguien mas
Y asi envenenar el aire ambiental
solo tu sabes como hacerme llorar
y a la tumba es secreto llevaras)

C# <- Acorde Final



               PORQUE TODAVIA PODEMOS DECIR UNA VEZ MAS

 TURNING:ESTANDART

Intro y Verso
e |-------------------------------------------------------------|
B |---------0---------------0---------------0-4-0--------0-2-0--|
G |-------4----4---4------4—---4---4------4------------4--------|
D |-----2--------2------2--------2------2------------2----------|
A |-----------------------------------0------------0------------|
E |---0---------------4-----------------------------------------|

PRE-coro
e |---------------------------------------------------------------------------|
B |-----------5-----------------5------------------5------------------5-------|
G |-------6-----6-----------6-----6------------6-----6------------6-----6-----|
D |-----6---6-----6-------7---7-----7--------6---6-----6--------7---6-----7---|
A |---4-------------4----------------------4-------------4--------------------|
E |---------------------5-------------5-----------------------5-------------5-|

e ----------------------------------------0---|
B -----------5-----------------4----------2---|
G -------6-----6-----------4-----4--------2---|
D -----6---6-----6-------4---4-----4------2---|
A ---4-------------4---2-------------2----0---|
E ----------------------------------------0---|

Coro (rasgueo)
E |------0-------0-------0-------0------|
B |------0-------0-------0-------0------|
G |------4-------4-------4-------4------|
D |------2-------2-------2-------2------|
A |------0-------x-------4-------2------|
E |------0-------2-------x-------0------|

****************************************************

en verdad tu eras quien ponia el cielo azul
tu eras el interruptor
interruptor de luz en la pared
te apagaste y regrese a la obscuridad

en verdad no se ni donde estoy parado
en verdad obscuro esta ya no veo nada
estiro mis brazos hacia el frente
grito tu nombre en alta voz

se que hay cosas que aclarar
no se tienen que aclarar
no me importa sigue igual

solo asienta por favor
la cabeza si los planes han cambiado
si los planes han cambiado

solo niega sin razon con la cabeza si
hoy se han quedado
si hoy se han quedado
pero por favor no me dejes dudando

dices tu que no te gusta que te ruege
luego me pediste que me arrodille a tus pies
ya sabias que lo haria
pues no existe cosa que me detenga para hacerte sentir bien

me dejaste escapar irresponsabilidad
siempre regresaba en el final

sonrie por favor
sonrie niña yo me quedare
te juro yo me quedare
si quieres tu llorar
si tu lloras yo me ire al amanecer
yo me ire al amanecer

pero por favor
no me dejes dudando(3)
pero por favor
no me dejes dudando

BUENO ESA ULTUMA CANCIÓN ES LA QUE LE DEDICO A MI AMIGA LORENA
Добавлено: 20.08.2013
Другие материалы по этой песне:
  • Аккорды и текст

Страница создана 20.08.2013
http://primanota.ru/panda/para-ti-con-desprecio-chords.htm
Привет, Гость.
Предлагаем пройти революционный курс по гитаре.
Подарок от PrimaNota.Ru, забирай!