PrimaNota.ru - самый крупный в мире бесплатный архив песенных текстов, аккордов, табулатур и нот


Panda - Atractivo Encontramos En Lo Mas Repugnante - таба, бас-таба, драм-таба, видео

Регистрация Запомнить меня
Войти через:  Facebook Google Twitter Vk Yandex Mail.ru

Panda - Atractivo Encontramos En Lo Mas Repugnante - таба, бас-таба, драм-таба, видео

Печатать
Просмотров: 70
-------------------------------------------------------------------------------
			     SONG NAME - Band Name
-------------------------------------------------------------------------------
Tabbed by:
Email:cesarin_tyravieso@homail.com

Tuning:
   Intro:
  lira 1
e|---------------------------------------------------------------------------|
B|--12---11---12-----------7---7/9-------------------------------------------|
G|9----9----9----12---9--9---9-----------------------------------------------|
D|---------------------------------------------------------------------------|
A|---------------------------------------------------------------------------|
E|---------------------------------------------------------------------------|
  lira 2  (entra despues junto con el bajo)
e|---------------------------------------------------------------------------|
B|---------------------------------------------------------------------------|
G|---------------------------------------------------------------------------|
D|9...5...2...7--------------------------------------------------------------|
A|9...5...2...7--------------------------------------------------------------|
E|7...3...0...5--------------------------------------------------------------|
   Verso:
  lira 1
e|------10-10/12--10-12/14-12-10----------10/12/10---------------------------|
B|---12--------------------------12-10/12-----------12-(12)------------------|
G|---------------------------------------------------------------------------|
D|9--------------------------------------------------------------------------|
A|---------------------------------------------------------------------------|
E|---------------------------------------------------------------------------|
  lira 2  (entra al terminar lo de la primera lira)
e|---------------------------------------------------------------------------|
B|---------------------------------------------------------------------------|
G|4...-----------------------------------------------------------------------|
D|4...5...2...2--------------------------------------------------------------|
A|2...5...2...2--------------------------------------------------------------|
E|----3...0...0--------------------------------------------------------------|
P.M ............
   Pre-Coro:
  lira 1
e|---------------------------------------------------------------------------|
B|------10--------------10---------------------------------------------------|
G|---------11--------------11------------------------------------------------|
D|---12-------12-----12-------12------6---------7-----9----------------------|
A|10--------------------------------4---7-5---5-----7------------------------|
E|----------------12--------------2---------3-----5--------------------------|
   Coro:
  lira 1
e|------------------------7----|--------------7-------------------------------|
B|----7-----------7------------|----7-----------------------------------------|
G|--5------7----5------7-------|--5------7--7---------------------------------|
D|-------7-----------7---------|-------7--------------------------------------|
A|-----------------------------|----------------------------------------------|
E|-----------------------------|----------------------------------------------|
  lira 2
e|---------------------------------------------------------------------------|
B|---------------------------------------------------------------------------|
G|----22--44---------------------22------------------------------------------|
D|55--22--44--44--55--2-4-2--55--22--4-2-4--5--7x7x-5------------------------|
A|55--00--22--44--55--2-4-2--55--00--4-2-4--5--7x7x-5------------------------|
E|33----------22--33--0-2-0--33------2-0-2--3--5x5x-3------------------------|
   despues la lira 1 repite intro
  lira 2  
e|---------------------------------------------------------------------------|
B|---------------------------------------------------------------------------|
G|---------------------------------------------------------------------------|
D|2...7...9...5...2...7...---------------------------------------------------|
A|2...7...9...5...2...7...---------------------------------------------------|
E|0...5...7...3...0...5...---------------------------------------------------|
   Repite verso
          Pre-Coro
          Coro

   Interlude:
  lira 2
e|---------------------------------------------------------------------------|
B|---------------------------------------------------------------------------|
G|---------------------------------------------------------------------------|
D|---------------------------------------------------------------------------|
A|--5-7-9---5-7-9---5-7-9---5---7-5------------------------------------------|
E|7-------3-------0-------5---5----------------------------------------------|
   Solo:
  lira 1
e|---------------------------------------------------------------------------|
B|---------------------------------------------------------------------------|
G|---------------------------------------------------------------------------|
D|9--12-12/14-12^-14^-12--9-12-12/14-12^-14^---------------------------------|
A|---------------------------------------------------------------------------|
E|---------------------------------------------------------------------------|
   Coro: (tocan lo del intro las dos gtrs)
   Outro:
  lira 1 y 2   aki cambia el ritmo
e|---------------------------------------------------------------------------|
B|---------------------------------------------------------------------------|
G|----2...44--------------------2...-----------------------------------------|
D|5...2...44-44-55--2-4-2--5...-2...-4-2-4--5--7x-7x-5-----------------------|
A|5...0...22-44-55--2-4-2--5-...0...-4-2-4--5--7x-7x-5-----------------------|
E|3...-------22-33--0-2-0--3---------2-0-2--3--5x-5x-3-----------------------|


| /  slide up
| \  slide down
| h  hammer-on
| p  pull-off
| ~  vibrato
| +  harmonic
| x  Mute note
===============================================================================
Добавлено: 13.10.2013
Другие материалы по этой песне:

Страница создана 13.10.2013
http://primanota.ru/panda/atractivo-encontramos-en-lo-mas-repugnante-chords.htm
Привет, Гость.
Предлагаем пройти революционный курс по гитаре.
Подарок от PrimaNota.Ru, забирай!