PrimaNota.ru - самый крупный в мире бесплатный архив песенных текстов, аккордов, табулатур и нот


Overkill - New Machine - текст песни, таба, видео

Регистрация Запомнить меня
Войти через:  Facebook Google Twitter Vk Yandex Mail.ru

Overkill - New Machine - текст песни, таба, видео

Печатать
Просмотров: 146
-------------------------------------------------------------------------------
			     New Machine - Overkill
-------------------------------------------------------------------------------
Tabbed by: Metalhead2000
Email: evwads2000@yahoo.com

Tuning: Standard
                                 Riff 1
e|----------------------------------------------------------------------|
B|----------------------------------------------------------------------|X4
G|----------------------------------------------------------------------|
D|-----------9-10-------9-8--------9-10----9/8----8/7----7/6------------|
A|------2----7-8--2-----7-6--2-----7-8-----7/6----6/5----5/4--------4---|
E|------0-0-0-----0-0-0------0-0-0-----0-0----0-0----0-0----0-0-2-2-2---|
          . .       . .        . .     . .    . .    . .    . . . .
e|------------------------------------------------------|
B|------------------------------------------------------|X4
G|------------------------------------------------------|
D|-------------------------------------------------3----| Riff 2
A|-2-----2-----2-------------2-----2-----2---------1----|
E|-0-023-0-023-0-023-0-0-2-3-0-023-0-023-0-023-0-0------|
     ...   ...   ... . . . .   ...   ...   ... . .
e|-------------------------------------------------|
B|-------------------------------------------------|X2
G|-------------------------------------------------|
D|--------------5-4--------------------------------| Riff 3
A|-2h4----------3-2-2h4----------------------------|
E|-0h2222222222-----0h2222222222-7h8p7p5-7h8p7p5---|
      .........        .........


                               Riff 1 X1
                               Riff 2 X2
                               Riff 3 X2
         Riff 4                        Ending 1         Ending 2
e|----------------------------------|-----------|-------------------|
B|----------------------------------|-----------|-------------------|
G|----------------------------------|-----------|-------------------|
D|---4-----------4---------4--------|-----------|-----------7/5-----|
A|-----3-2---1-----3-2-5-----3-2---1|-7---8/7/5-|-7---5-7-------2---|
E|-2-------3---2-------3-2-------3--|-555-6/5/3-|-555-3-5-------0---|
                                       ..          ..
                           Drum Fill

                                1,3            2,4(on 4th time play twice)
e|----------------------------|--------------|------------------|
B|----------------------------|--------------|------------------|
G|----------------------------|--------------|------------------|4th time
D|----------------------------|--------------|------------------|no E5 chord
A|--------8---7---5/7-5/7-2---|-8---7---5--2-|------5------5--2-|
E|000000--6-0-5-0-3/5-3/5-0---|-6-0-5-0-3--0-|-0000-3-0000-3--0-|
  ......    .   .                 .   .        ....   ....
Note: The first time after the drum fill you do alot of palm mutes. Listen to the song 
know what I'm talking about.
                                 1,3         2,4(on 4th time play twice)
e|-----------------------------|------------|---------------------|
B|-----------------------------|------------|---------------------|
G|-----------------------------|------------|---------------------|4th time
D|-9///--------10--9---7/9-7/9-|-10--9---10-|----------------9----|no E5
A|-7///--------8---7---5/7-5/7-|-8---7---8--|------5------5--7----|
E|------000000---0---0---------|---0---0----|-0000-3-0000-3-------|
        ......   .   .             .   .      ....   ....
e|-------------------------|
B|-------------------------|
G|-------------------------|Fill
D|---4-5--9---8------7/5---|
A|-2-2-3--7-7-6--5---------|
E|-0--------.----3---------|
                                 1               2
e|----------------------------|-----------------|-----|
B|----------------------------|-----------------|-----|
G|----------------------------|-----------------|-2b--|
D|----------------------------|-----------------|-2b--|
A|-2-----2-----2--------------|-----------------|-----|
E|-0-023-0-023-0-023-0-0-2-3--|-7h8p7p5-7h8p7p5-|-----|
     ...   ...   ... . . . .

                       Riff 3 X2

                       Riff 4 Until End

             Well, thats it! email for corrections and stuff. Have fun.

| .  palm mute
| /  slide up
| \  slide down
| h  hammer-on
| p  pull-off
| ~  vibrato
| +  harmonic
| x  Mute note
===============================================================================
Добавлено: 02.12.2013
Другие материалы по этой песне:
  • Аккорды и текст

Страница создана 14.07.2012
http://primanota.ru/overkill/new-machine-chords.htm
Привет, Гость.
Предлагаем пройти революционный курс по гитаре.
Подарок от PrimaNota.Ru, забирай!