PrimaNota.ru - самый крупный в мире бесплатный архив песенных текстов, аккордов, табулатур и нот


Overkill - Unholy - текст песни, бас-таба, видео

Регистрация Запомнить меня
Войти через:  Facebook Google Twitter Vk Yandex Mail.ru

Overkill - Unholy - текст песни, бас-таба, видео

Печатать
Просмотров: 45
-------------------------------------------------------------------------------
                             Unholy - Overkill
-------------------------------------------------------------------------------
Tabbed by: ghidorah89



Intro
G|---------------------------------------------------------------------------|
D|---------------------------------------------------------------------------|7x
A|--3-4--4-4--4-4-4-4--4-4--4-4-4-4--4-4--4-4-4-4--4-4-----------------------|
E|---------------------------------------------------------------------------|

G|---------------------------------------------------------------------------|
D|--\66666666666666666666666666666666----------------------------------------|
A|---------------------------------------------------------------------------|
E|---------------------------------------------------------------------------|

Break
G|---------------------------------------------------------------------------|
D|---------------------------------------------------------------------------|2x
A|--3-4-444444444444-3-4-444444444444-3-4-444444444444-3-4-44--4-3-4-44-4----|
E|---------------------------------------------------------------------------|

Verse
G|---------------------------------------------------------------------------|
D|---------------------------------------------------------------------------|4x
A|----------------3-4-444444444444-3-4-444444444444--------------------------|
E|--2----2----5-5------------------------------------------------------------|

Bridge/Pre-Chorus
G|---------------------------------------------------------------------------|
D|---------------------------------------------------------------------------|2x
A|-----2----2---------------------2----1-------------------------------------|
E|--2----1----0--0-0-0-0-0-0-0-2----2----0--0-0-0-0-000-0--------------------|

Chorus
G|---------------------------------------------------------------------------|
D|---------------------------------------------------------------------------|
A|--4--6-7--------------6--4--6-7--------------6--4-4-4-4-4-4-4-4-4-4-4-4----|
E|------------4--4-4-5---------------4--4-4-5--------------------------------|

Break(once) + Verse + Bridge + Chorus

Solo
G|---------------------------------------------------------------------------|
D|---------------------------------------------------------------------------|8x
A|---------------------------------------------------------------------------|
E|--0--0--1-1--1--0-0-0-1-1--0--0--1-1--1--0-0-0-1-1-------------------------|

G|---------------------------------------------------------------------------|
D|---------------------------------------------------------------------------|4x
A|--4--4--4-4--4-4-4-4--4-4--4-4-4-4--4-4--4--4-4----------------------------|
E|---------------------------------------------------------------------------|

Verse + Bridge + 2x Chorus

Outro
G|---------------------------------------------------------------------------|
D|---------------------------------------------------------------------------|4x
A|--4--4--4-4--4-4-4-4--4-4--4-4-4-4--4--4--4-4--4---------------------------|
E|---------------------------------------------------------------------------|

Im not sure about the solo, but the rest will work.
Enjoy.
| /  slide up
| \  slide down
| h  hammer-on
| p  pull-off
| ~  vibrato
| +  harmonic
| x  Mute note
===============================================================================
Добавлено: 22.05.2016
Другие материалы по этой песне:
  • Аккорды и текст

Страница создана 28.02.2012
http://primanota.ru/overkill/unholy-chords.htm
Привет, Гость.
Предлагаем пройти революционный курс по гитаре.
Подарок от PrimaNota.Ru, забирай!