PrimaNota.ru - самый крупный в мире бесплатный архив песенных текстов, аккордов, табулатур и нот


Overkill - Time To Kill - текст песни, таба, видео

Регистрация Запомнить меня
Войти через:  Facebook Google Twitter Vk Yandex Mail.ru

Overkill - Time To Kill - текст песни, таба, видео

Печатать
Просмотров: 81
Уроки эстрадного вокала в Санкт-Петербурге
OVERKILL - TIME TO KILL
(The Years Of Decay, 1989)

Key
= after note = vibrato
^ after note = heavy vibrato
\\ = slide down
/ = slide up
+ = tap
h = hammer
p = pull
n = natural harmonic
s = pinching harmonic (squeal)
* = tremolo pick
t = trill
b = bend
|-3-| = triplet

n number above the tab = play the first part then the first finishing part
                         play the first part a second time and then play the second finishing part
                         etc.

Riff 1

E ------------------------------------------------------------------
B ------------------------------------------------------------------
G ------------------------------------------------------------------
D -2---------------5---------------5---------5---------2------------
A -2---------------5---------------5---------5---------2------------
E -0---------0-2-0-3---------0-2-0-3---0-2-0-3---0-2-3-0------------

Riff 1A

E --------------------------------------------------------------------------
B --------------------------------------------------------------------------
G --------------------------------------------------------------------------
D -9---------9-11-9-12---------9-11-9-12---9-11-9-12---9-11-12-9------------
A --------------------------------------------------------------------------
E --------------------------------------------------------------------------

Riff 1B

E -----------------------------------------------------
B -----------------------------------------------------
G -----------------------------------------------------
D -2---------------5---------------5---------5---------
A -2---------------5---------------5---------5---------
E -0---------0-2-0-3---------0-2-0-3---0-2-0-3---0-2-3-

Riff 1C

E -------------------------------------------------------------
B -------------------------------------------------------------
G -------------------------------------------------------------
D -9---------9-11-9-12---------9-11-9-12---9-11-9-12---9-11-12-
A -------------------------------------------------------------
E -------------------------------------------------------------

Riff 1D

E ---------------------------------------------------------
B -15b17------------18b20------------18b20------18b20------
G ---------------------------------------------------------
D ---------------------------------------------------------
A ---------------------------------------------------------
E ---------------------------------------------------------

Riff 2

E ---------------------------------------------------------------------------------
B ---------------------------------------------------------------------------------
G ---------------------------------------------------------------------------------
D -2---------5---------3---------6---5---2---------5---------3---------5-----5-----
A -2---------5---------3---------6---5---2---------5---------3---------5-----5-----
E -0---0-0-0-3---0-0-0-1---0-0-0-4---3---0---0-0-0-3---0-0-0-1---0-0-0-3-0-0-3-0-0-

Riff 2A

E ------------------------------
B ------------------------------
G ------------------------------
D ----2---2---2---2---2---2---2-
A ----2---2---2---2---2---2---2-
E ----0---0---0---0---0---0---0-

Riff 2B

E -----------------------------------------------------------------------------------------------------------
B -----------------------------------------------------------------------------------------------------------
G -----------------------------------------------------------------------------------------------------------
D -2---------5---------3---------6---5---2---------5---------3---------5-----5-----2---------5-----5-----2---
A -2---------5---------3---------6---5---2---------5---------3---------5-----5-----2---------5-----5-----2---
E -0---0-0-0-3---0-0-0-1---0-0-0-4---3---0---0-0-0-3---0-0-0-1---0-0-0-3-0-0-3-0-0-0---0-0-0-3-0-0-3-0-0-0---

E -------------------
B -------------------
G -------------------
D -------5-----5-----
A -------5-----5-----
E -0-0-0-3-0-0-3-0-0-

Riff 2D

E ---------------------------------------------
B ---------------------------------------------
G ---------------------------------------------
D -2---------5---------3---------5-----5-----2-
A -2---------5---------3---------5-----5-----2-
E -0---0-0-0-3---0-0-0-1---0-0-0-3-0-0-3-0-0-0-

Fill 1

E -------------------------------------------------------------------------------------------------
B -------------------------------------------------------------------------------------------------
G -------------------------------------------------------------------------------------------------
D -------------------------------------------------------------------------------------------------
A -------------------------------------------------------------------------------------------------
E -0-0-0-0-0-0-0-0-0-0-0-0-0-0-0-0-0-0-0-0-0-0-0-0-0-0-0-0-0-0-0-0-0-0-0-0-0-0-0-0-0-0-0-0-0-0-0-0-

E ---------------------------------
B ---------------------------------
G ---------------------------------
D ---------------------------------
A ---------------------------------
E -0-0-0-0-0-0-0-0-0-0-0-0-0-0-0-0-

Riff 3

E -----------------------------------------------------------
B -----------------------------------------------------------
G -----------------------------------------------------------
D ---------------------------------------------------5-6--5--
A ---------------------------------------------------5-6--5--
E -0-0-0-0-0-0-0-0-0-0-0-0-0-0-0-0-0-0-0-0-0-0-0-0-0-3-4--3--

Riff 3A

E ----------------------------------------------------------------
B ----------------------------------------------------------------
G ----------------------------------------------------------------
D -----5-----5-6------5-----5-6------5-----5-6------5-----5-6--5--
A -----5-----5-6------5-----5-6------5-----5-6------5-----5-6--5--
E -0-0-3-0-0-3-4--0-0-3-0-0-3-4--0-0-3-0-0-3-4--0-0-3-0-0-3-4--3--

Riff 4

E -----------------------------------------------
B -----------------------------------------------
G -----------------------------------------------
D -2-----------------------2---------------------
A -2----2----1----0--------2----2----1----0------
E -0----3----2----1--0-0-0-0----3----2----1--0-0-

Riff 4A

E -----------------------------------------------------------------------------------------------------
B -----------------------------------------------------------------------------------------------------
G ------4----3----2-----------4----3----------------------4----3----2------------------------------3-4-
D -2----4----3----2------2----4----3-----------------2----4----3----2------2----5----4----3--------3-4-
A -2----2----1----0------2----2----1----0h1-0--------2----2----1----0------2----5----4----3--------1-2-
E -0-----------------0-0-0--------------------3--0-0-0-----------------0-0-0----3----2----1----0-0-----

Riff 4B

E --------------------------------------------------------------------- ---------------------------------
B --------------------------------------------------------------------- ---------------------------------
G ------4----3----2-----------4----3----------------------4----3----2-- -----------------------------3-4-
D -2----4----3----2------2----4----3-----------------2----4----3----2-- -----2----5----4----3--------3-4-
A -2----2----1----0------2----2----1----0h1-0--------2----2----1----0-- -----2----5----4----3--------1-2-
E -0-----------------0-0-0--------------------3--0-0-0----------------- -0-0-0----3----2----1----0-0-----

Riff 5

E ---------------------------
B ---------------------------
G ---------------------------
D ---------------------------
A ---------2-----1-----0-----
E -0-0-0-0---3-----2-----1---

Riff 6

E -----------------------------------------------------
B -----------------------------------------------------
G -----------------------------------------------------
D -------------------------------------------9---------
A -7----10----9--8-7--------7----10----9--10----10-9-8-
E --------------------0-0-0----------------------------

Riff 6A

E -----------------------------------------------------------
B -----------------------------------------------------------
G ----------------------------------------------11-----------
D -9----12----11--10-9--------9----12----11--12-----12-11-10-
A -----------------------------------------------------------
E ----------------------0-0-0--------------------------------

Riff 6B

E --------------------------------------------------------------
B --------------------------------------------------------------
G -------------------------------------------------16-----------
D -14----17----16--15-14--------14----17----16--17-----17-16-15-
A --------------------------------------------------------------
E ------------------------0-0-0---------------------------------

Riff 7A

E ------------------------------------------------------------
B ------------------------------------------------------------
G ------------------------------------------------------------
D -2--------------2--------------2--------------2------2------
A -2--------------1--------------1--------------1------1------
E -0--0-0-0-0-0-0----0-0-0-0-0-0----0-0-0-0-0-0----0-0----0-0-

Riff 7B

E ------------------------------------------------------------------------------
B ------------------------------------------------------------------------------
G ------------------------------------------------------------9-7---------------
D -2--------------2--------------2--------------2------2------9-7-9-7-----------
A -2--------------1--------------1--------------1------1------7-5-9-7-5---------
E -0--0-0-0-0-0-0----0-0-0-0-0-0----0-0-0-0-0-0----0-0----0-0-----7-5---7-6b7-6-

Riff 7

E ------------------------------------------------------------
B ------------------------------------------------------------
G ------------------------------------------------------------
D -2--------------2--------------2--------------2------2------
A -2--------------1--------------1--------------1------1------
E -0--0-0-0-0-0-0----0-0-0-0-0-0----0-0-0-0-0-0----0-0----0-0-

E -------------------------------------------------------------------
B -------------------------------------------------------------------
G -------------------------------------------------------------------
D -2--------------2--------------2--------------2------2----------2--
A -2--------------1--------------1--------------1------1--0h1p0---2--
E -0--0-0-0-0-0-0----0-0-0-0-0-0----0-0-0-0-0-0----0-0----------3-0--

Riff 8

E -----------------------------
B -----------------------------
G -----------------------------
D -22-2---55-5---44-4---33-3---
A -22-2---55-5---44-4---33-3---
E -00-0---33-3---22-2---11-1---

Riff 8A

E -----------------------------------
B -----------------------------------
G -------------------------------3-4-
D -22-2---22-2---22-2---22-2-----3-4-
A -22-2---22-2---22-2---22-2-----1-2-
E -00-0---00-0---00-0---00-0---------

Riff 8B

E ------------------------------
B ------------------------------
G ------------------------------
D -22-2---22-2---22-2---22-2----
A -22-2---22-2---22-2---22-2----
E -00-0---00-0---00-0---00-0----

Riff 9

E --- ------------------------------------------------------ ------------------- ---
B --- ------------------------------------------------------ ------------------- ---
G --- -9----------------7----------------5------------------ -9-----7----------- ---
D -2- -9----------------7----------------5----------------2- -9--9--7--7--8-6-5- -2-
A -2- -7----------------5----------------3----------------2- -7--9--5--7--8-7-5- -2-
E -0- ----------------------------------------------------0- ----7-----5--6-5-3- -0-

Order

Riff 1 x 4
Riff 1/1A x 1
Riff 1/1A/1B x 1
Riff 2 x 1
Riff 2/2A x 1
Riff 2 x 1
Riff 2B x 1
Fill 1 x 1
Riff 3 x 2
Riff 3A x 2
Riff 4 x 2
Riff 4A x 1
Riff 3 x 2
Riff 3A x 2
Riff 4 x 2
Riff 4B x 1
Riff 5 x 4
Riff 6/6A/6B x 2
Riff 7A x 1
Riff 7B x 1
Riff 7 x 3
Riff 8 x 3
Riff 8A x 1
Riff 3 x 2
Riff 3A x 2
Riff 4 x 2
Riff 4A x 1
Riff 5 x 4
Riff 8 x 3
Riff 8B x 1
Riff 9 x 1
Riff 2D x 1

Tabbed by Radiohater 2003
Добавлено: 22.05.2016
Другие материалы по этой песне:

Страница создана 05.04.2012
http://primanota.ru/overkill/time-to-kill-chords.htm
Привет, Гость.
Предлагаем пройти революционный курс по гитаре.
Подарок от PrimaNota.Ru, забирай!