PrimaNota.ru - самый крупный в мире бесплатный архив песенных текстов, аккордов, табулатур и нот


Overkill - Struck Down - текст песни, бас-таба, видео

Регистрация Запомнить меня
Войти через:  Facebook Google Twitter Vk Yandex Mail.ru

Overkill - Struck Down - текст песни, бас-таба, видео

Печатать
Просмотров: 102
Уроки эстрадного вокала в Санкт-Петербурге
-------------------------------------------------------------------------------
                             Struck Down- Overkill
-------------------------------------------------------------------------------
Tabbed by: ghidorah89
E-mail: 


Intro(hear when bass enter)
G|-------------------------------------------------------------------------| 
D|--4-6--------------------------------------------------------------------| 2x
A|------6-6666-6-6--6-6666-6-6--6-6666-6-6--6-6666-------------------------| 
E|-------------------------------------------------------------------------| 

G|-------------------------------------------------------------------------|
D|-------------------------------------------------------------------------| 1x
A|--7----------7----------7----------7777777-------------------------------|
E|-------------------------------------------------------------------------|

G|-------------------------------------------------------------------------|
D|---------------------------------------------4-6-------------------------| 2x
A|--6-6666-6-6--6-6666-6-6--6-6666-6-6--6-6666-----------------------------|
E|-------------------------------------------------------------------------|

Verse
    leveled, hammered...
G|-------------------------------------------------------------------------|
D|------888-777-666--------------------------------------------------------| 3x
A|--666-------------999-666-888888--666666-6-6-666-6-6-66666666------------|
E|-------------------------------------------------------------------------|
    do you know...
G|-------------------------------------------------------------------------|
D|------888-777-666--------------------------------------------------------|
A|--666-------------999999-888888-666666-6-6-666-6-6-66666666--------------|
E|-------------------------------------------------------------------------|

BridgeI
    face it, kill it...
G|-------------------------------------------------------------------------|
D|-------------------------------------------------------------------------| 2x
A|--8-8--444444--8-8--4-6-8-6-6666-6-6666-6-6666-6-6666--------------------|
E|-------------------------------------------------------------------------|

STRUCK DOWN!!!
G|-------------------------------------------------------------------------|
D|-------------------------------------------------------------------------|
A|--4-4-44-4-4-44--4-2-1-2-1-----------------------------------------------|
E|---------------------------2---------------------------------------------|

Verse + BridgeI

BridgeII
    turn them into nothing...
G|-------------------------------------------------------------------------|
D|-------------------------------------------------------------------------| 3x
A|--4----4-6-8-6\13--------------------------------------------------------|
E|-------------------------------------------------------------------------|

STRUCK DOWN!!!
G|-------------------------------------------------------------------------|
D|----------------------------------6-4-3----------------------------------|
A|--4-4-44-4-4-44-4-2-1-2-1---6-4-2----------------------------------------|
E|--------------------------2----------------------------------------------|

G|-------------------------------------------------------------------------|
D|---------------------------------------------------------------------4-3-|
A|--6-6-666-6-66-6-66-6-6-666-6-66-6-66-1-2-222-2-22-2-22-1-2-222-2-22-----|
E|-------------------------------------------------------------------------|
    hear me screaming...
G|-------------------------------------------------------------------------|
D|---------------------------------------------------------------------4-3-|
A|--6-6-666-6-66-6-66-6-6-666-6-66-6-66-1-2-222-2-22-2-22-1-2-222-2-22-----|
E|-------------------------------------------------------------------------|
    help me...                we are...
G|-------------------------------------------------------------------------|
D|-------------------------------------------------------------------------| 2x
A|--6--1-1\6/1-2-6-1-1\6/1-2--2-2-1-2--1-2-1\9-8---------------------------|
E|-------------------------------------------------------------------------|

Solo
G|-------------------------------------------------------------------------|
D|-------------------------------------------------------------------------|
A|--6666----9999--1111--2222----2222--1111----------1111--4444--6666-------|
E|------------------------------------------4444---------------------------|

G|-------------------------------------------------------------------------|
D|------888-777-666-------\888888----------------------\888888-------------|
A|--666-------------666666--------999999-1111111-222222--------222222------|
E|-------------------------------------------------------------------------|

G|-------------------------------------------------------------------------|
D|---------------1\666666---------------------\888888-----888-777-666------|
A|--111111----------------111111-444444-666666--------666------------------|
E|---------44444-----------------------------------------------------------|

G|-------------------------------------------------------------------------|
D|----------------------------------------------------888-777-666----------|
A|--6------9--1--2------2--1---------1--4--6------666----------------------|
E|----------------------------4--------------------------------------------|

G|-------------------------------------------------------------------------|
D|----------------------------------------------------888-777-666----------|
A|--6------9--1--2------2--1---------1--4--6------666----------------------|
E|----------------------------4--------------------------------------------|

G|-------------------------------------------------------------------------|
D|-------------------------------------------------------------------------|
A|--6666----9999--1111--2222----2222--1111----------1111--4444--6666-------|
E|------------------------------------------4444---------------------------|

G|-------------------------------------------------------------------------|
D|-------------------------------------------------------------------------|
A|--6666----9999--1111--2222----2222--1111----------1111--4444--6666-------|
E|------------------------------------------4444---------------------------|


G|-------------------------------------------------------------------------|
D|------888-777-666--------------------------------------------------------|
A|--666--------------------------------------------------------------------|
E|-------------------------------------------------------------------------|

BridgeII

STRUCK DOWN!!!
G|-------------------------------------------------------------------------|
D|-------------------------------------------------------------------------|
A|--4-4-44-4-4-44-4-2-1-2-1------------------------------------------------|
E|--------------------------2----------------------------------------------|

Verse + BridgeI

I STAND!!!!
G|-------------------------------------------------------------------------|
D|----------------------------------6-4-3----------------------------------|
A|--4-4-44-4-4-44-4-2-1-2-1---6-4-2----------------------------------------|
E|--------------------------2----------------------------------------------|

down... struck down...
G|-------------------------------------------------------------------------|
D|-------------------------------------------------------------------------| 2x
A|--9--66-66-6666--9--66-66-6666--9--66-66-6666--9-66-66-6666--------------|
E|-------------------------------------------------------------------------|

G|-------------------------------------------------------------------------|
D|-------------------------------------------------------------------------|
A|--2----5----6666---------------------------------------------------------|
E|-------------------------------------------------------------------------|

| /  slide up
| \  slide down
| h  hammer-on
| p  pull-off
| ~  vibrato
| +  harmonic
| x  Mute note
===============================================================================
Добавлено: 22.05.2016
Другие материалы по этой песне:
  • Аккорды и текст

Страница создана 24.05.2012
http://primanota.ru/overkill/struck-down-chords.htm
Привет, Гость.
Предлагаем пройти революционный курс по гитаре.
Подарок от PrimaNota.Ru, забирай!