PrimaNota.ru - самый крупный в мире бесплатный архив песенных текстов, аккордов, табулатур и нот


Overkill - Feel The Fire - текст песни, таба, видео

Регистрация Запомнить меня
Войти через:  Facebook Google Twitter Vk Yandex Mail.ru

Overkill - Feel The Fire - текст песни, таба, видео

Печатать
Просмотров: 242
Уроки эстрадного вокала в Санкт-Петербурге
Авторы: Rat Skates, D.D. Verni, Bobby Gustafson, Bobby “Blitz” Ellsworth

			
			FEEL THE FIRE 
			      by
			   OVERKILL

Tabbed by:thrashdeth
tuning:standard

INTRO

||------------------------------------------------------------||
||o----------------------------------------------------------o||
||------------------------------------------------------------||
||---------7------10---9---7------10---12---------------------||
||o--------5-------8---7---5-------8---10--------------------o||
||--X//-------------------------------------------------------||
  Pick Slide

Verse

|------------------------------------------------------------|
|o----------------------------------------------------------o|
|------------------------------------------------------------|
|----5--7-----------------------------------------------7----|
|o---3--5--555--555--555--555--555--555--555--555--555--5---o|
|------------------------------------------------------------|

Chorus A

|------------------------------------------------------------|
|o----------------------------------------------------------o|
|------------------------------------------------------------|
|----7--9--10-----5---7------------------7-------------------|
|o---5--7--8------3---5--555-555-555-555-5--555-555-555-555-o|
|------------------------------------------------------------|

Play Verse again
Play Chorus A

Chorus B

|-----------------------------------------------------------------|
|o---------------------------------------------------------------o|
|-----------------------------------------------------------------|
|----7--5--3----5--------10--9--7------------------7--------------|
|o---5--3--1----3--------8---7--5--555-555-555-555-5-555-555-555-o|
|-----------------------------------------------------------------|

Play Verse
Play Chorus A and B

Awesome Riff 1

|------------------------------------------------------------|
|o----------------------------------------------------------o|
|------------------------------------------------------------|
|---7------5--7-----5--7--10--9--5--7------------------------|
|o--5------3--5-----3--5--8---7--3--5-----------------------o|
|------------------------------------------------------------|

Awesome Riff 2

|------------------------------------------------------------|
|o----------------------------------------------------------o|
|------------------------------------------------------------|
|------------------------------------------------------------|
|o----8--7-------8--7-------8--7--8--10-8--7----------------o|
|-----6--5--555--6--5--555--6--5--6--8--6--5--555------------|

Play Awesome Riff 1 and 2 again


Interlude Riff

|-----------------------------------------------------------------------|
|o---------------------------------------------------------------------o|
|-----------------------------------------------------------------------|
|---------------9-------------10-9----------------9---------------------|
|o--------------7-------------8--7----------------7---8-7-5---7-5------o|
|---0-0-0-0-0-0---0-0-0-0-0-0-------0-0-0-0-0-0-0-----------8-----8-7---|


Interlude Riff 2
|------------------------------------------------------------|
|------------------------------------------------------------|
|------------------------------------------------------------|
|--7----5--5---5--7---5--5---5--7---5--5---5---10---5--7-----|
|--5----3--3---3--5---3--3---3--5---3--3---3---8----3--5-----|
|------------------------------------------------------------|


"FEEL THE FIRE!" ("Higher! Higher! Feel the Fire!")
|---------------------------------------------------------------|
|o-------------------------------------------------------------o|
|---------------------------------------------------------------|
|-----------------------------------------------5-----5-----5---|
|o5-5-5-5-5-5-5-5-5-5-5-5-5-5-3-3-3-3-3-3-3-3-3-3-3-3-3-3-3-3--o|
|---------------------------------------------------------------|

"FEEL THE FIRE!" 2 
|------------------------------------------------------------|
|------------------------------------------------------------|
|------------------------------------------------------------|
|--7-------------8--7--5--7-----------7---7------------------|
|--5-5-5-5-5-5-5-6--5--3--5-5-5-5-5-5-5-5-5-5-3-3-3-3-3-3-3--|
|------------------------------------------------------------|

Pre solo
|------------------------------------------------------------|
|------------------------------------------------------------|
|------------------------------------------------------------|
|---7---------8---------9--------10------10-9--8--10-9--8----|
|---5--00000--6--00000--7--00000-8-00000-8--7--6--8--7--6----|
|------------------------------------------------------------|

|------------------------------------------------------------|
|o----------------------------------------------------------o|
|------------------------------------------------------------|
|---10--888-777--555--10-888--777--555-----------------------|
|o----------------------------------------------------------o|
|------------------------------------------------------------|

Solo:not transcribed

Play verse again

The outro is just riffs already used.  You'll have no problem with it.

That's it.


Notes: This is just a rough guideline of the song order.

I'm not not sure about "FEEL THE FIRE!" 2 and the pre solo.

Awesome riff 2 and the gallop in the verse are played on the bass.
Добавлено: 21.09.2013
Другие материалы по этой песне:
  • Аккорды и текст

Страница создана 11.06.2012
http://primanota.ru/overkill/feel-the-fire-chords.htm
Привет, Гость.
Предлагаем пройти революционный курс по гитаре.
Подарок от PrimaNota.Ru, забирай!