PrimaNota.ru - самый крупный в мире бесплатный архив песенных текстов, аккордов, табулатур и нот


Overkill - Hello From The Gutter - текст песни, таба, видео

Регистрация Запомнить меня
Войти через:  Facebook Google Twitter Vk Yandex Mail.ru

Overkill - Hello From The Gutter - текст песни, таба, видео

Печатать
Просмотров: 183
Авторы: D.D. Verni, Bobby Gustafson, Bobby “Blitz” Ellsworth

                                 OVERKILL
                            HELLO FROM THE GUTTER
                        from UNDER THE INFLUENCE(1988)
EXPLANATION
= after note = vibrato
^ after note = heavy vibrato
\\ = slide down
/ = slide up
+ = tap
h = hammer
p = pull
n = natural harmonic
s = pinching harmonic (squeal)
* = tremolo pick
t = trill
b = bend
|-3-| = triplet

This sounds right, sorry no solo but if you know it make your own version.

Intro

E ----------------------3---------------------------------3----------------|
B -2------------2-0-----0----------------2----------------0------------5-7-|
G -2------------2-0-----0----------------2----------------0------------5-7-|
D -2------------2-0-----0----------------2----------------0------------5-7-|
A -0----------------0-0----------------------------------------------------|
E -------------------------------------------------------------------------|

Riff 1

E ------------------------------------------------------------------|
B -----7-----8-----7-----8-----5-7-----7-----8----------------------|
G -----7-----7-----7-----7-----7-7-----7-----7---------10---9-------|
D -0-0-0-0-0-0-0-0-0-0-0-0-0-0-0-0-0-0-0-0-0-0-0-0-0-0-10---9---10--|
A -----------------------------------------------------8 ---7---10--|
E --------------------------------------------------------------8 --|

Riff 1A

E -----------------------------------------------------------------------------------|
B -----7-----8-----7-----8-----5-7-----7-----7---------------------------------------|
G -----7-----7-----7-----7-----7-7-----7-----7-----10---9---------------10---9-------|
D -0-0-0-0-0-0-0-0-0-0-0-0-0-0-0-0-0-0-0-0-0-0-----10---9---10----------10---9---10--|
A -------------------------------------------------8 ---7---10----------8 ---7---10--|
E ----------------------------------------------------------8 -------------------8 --|

Riff 1B

E ------------------------------------------------------14-------14----14-|
B -----7-----8-----7-----8-----5-7-----7-----8---/15-15----15-15----15----|
G -----7-----7-----7-----7-----7-7-----7-----7----------------------------|
D -0-0-0-0-0-0-0-0-0-0-0-0-0-0-0-0-0-0-0-0-0-0----------------------------|
A ------------------------------------------------------------------------|
E ------------------------------------------------------------------------|

Riff 2

E --------------------------------------------------------------|
B --------------------------------------------------------------|
G -7----7--7-7-5-7----7--7-7-5-7--7----7--7-5-7-10--10----------|
D -7----7--7-7-5-7----7--7-7-5-7--7----7--7-7-5-10--10--10--10--|
A -5--5-5--5-5-3-5--5-5--5-5-3-5--5--5-5--5-5-3-8 --8 --10--10--|
E ------------------------------------------------------8 --8 --|

Riff 2A

E ----------------------------------------------------------------|
B ----------------------------------------------------------------|
G -7----------------------------------------------10--10----------|
D -7----------------------------------------------10--10--10--10--|
A -5--5-5-5-5-5-5-5-5-5-5-5-5-5-5-5-5-5-5-5-5-5-5-8 --8 --10--10--|
E --------------------------------------------------------8 --8 --|

Riff 2B

E ---------------------------------------------------------------------------|
B ---------------------------------------------------------------------------|
G -7----7--7-7-5-7----7--7-7-5-7--7----7--7-5-7------------------------------|
D -7----7--7-7-5-7----7--7-7-5-7--7----7--7-7-5--------7-8-10--------7-8-10--|
A -5--5-5--5-5-3-5--5-5--5-5-3-5--5--5-5--5-5-3-7-8-10--------7-8-10---------|
E ---------------------------------------------------------------------------|
                        |--3-| |-3--| |--3-| |-3-----------------------------|

Riff 2C

E --------------------------------------------------------------------------|
B --------------------------------------------------------------------------|
G -7----7--7-7-5-7----7--7-7-5-7--7----7--7-5-7-10--------10--------10------|
D -7----7--7-7-5-7----7--7-7-5-7--7----7--7-7-5-10---10---10---10---10--10--|
A -5--5-5--5-5-3-5--5-5--5-5-3-5--5--5-5--5-5-3-8 ---10---8 ---10---8 --10--|
E ---------------------------------------------------8 --------8 -------8 --|

Riff 2D

E -----------------------------------------------------------------|
B -----------------------------------------------------------------|
G -------------------------------------------------10--10----------|
D -------------------------------------------------10--10--10--10--|
A -5-5-5-5-5-5-5-5-5-5-5-5-5-5-5-5-5-5-5-5-5-5-5-5-8 --8 --10--10--|
E ---------------------------------------------------------8 --8 --|

E -----------------------------------------------------------------|
B -----------------------------------------------------------------|
G -----------------------------------------------------------------|
D -------------------------------------------------7-5-----5-3-----|
A -5-5-5-5-5-5-5-5-5-5-5-5-5-5-5-5-5-5-5-5-5-5-5-5-----8-5-----5-3-|
E -----------------------------------------------------------------|

Riff 3

E -------------------------------------------------------------------------------|
B -------------------------------------------------------------------------------|
G ------------7---5---------------------------5-------------7---5----------------|
D -7---5---7--7---5---5--7---5---7--10---10---5--7---5---7--7---5---5--7---5---7-|
A -7---5---7--5---3---5--7---5---7--8 ---7 ---3--7---5---7--5---3---5--7---5---7-|
E -5---3---5----------3--5---3---5---------------5---3---5----------3--5---3---5-|

E --------------------------------------------------|
B --------------------------------------------------|
G 12-14-14-14-12-14-14-14-12-14-14-14-12-14-14-14---|
D 12-14-14-14-12-14-14-14-12-14-14-12 -12-14-14-14--|
A 10-12-12-12-10-12-12-12-10-12-12-12-10-12-12-12---|
E --------------------------------------------------|

Riff 4

E -------------------------------------------------------------------|
B -------------------------------------------------------------------|
G -------------------------------------------------------------------|
D -------------------------------------------------------------------|
A -5-5-5-5-5-5-5-5-5-5-5-5-5-5-5-5-5-5-5-5-5-5-5-5-7--8-10-----------|
E ----------------------------------------------------------10-10-10-|

E ------------------------------------------------------------------------------|
B ------------------------------------------------------------------------------|
G ------------------------------------------------------------------------------|
D -------------------------------------------------10---10---10--------10---10--|
A -5-5-5-5-5-5-5-5-5-5-5-5-5-5-5-5-5-5-5-5-5-5-5-5-8 ---7 ---10--8-8-8-7 ---7 --
E -----------------------------------------------------------8 -----------------

Riff 5

E --------------------------------------------------------------------------|
B --------------------------------------------------------------------------|
G -----------------------------------------------------------------5--------|
D -7----------------------------3--5--7----------------------------5--------|
A -7----------------------------3--5--7----------------------------3--------|
E -5----------------------------1--3--5-------------------------------------|

Riff 6

E ----------------------------------------------------------------------|
B -----8-----7-----8-----7-----10-8-7-------6-----5-----8-6-5---6-5-----|
G -----7-----7-----7-----7-----7 -7-7-9-----5-----5-----5-5-5-7-5-5-7-5-|
D -0-0-0-0-0-0-0-0-0-0-0-0-0-0----------0-0-0-0-0-0-0-0-0-0-0-0-0-0-0-0-|
A ----------------------------------------------------------------------|
E ----------------------------------------------------------------------|

Riff 6A

E --------------------------------------------------------------------------------------|
B -----8-----7-----10----8-----8-7----------6-----5-----8-6-5---6-5-----6-4-3---4-3-----|
G -----7-----7-----7-----7-----7-7-9-7------5-----5-----5-5-5-7-5-5-7-5-3-3-3-5-3-3-5-3-|
D -0-0-0-0-0-0-0-0-0-0-0-0-0-0----------0-0-0-0-0-0-0-0-0-0-0-0-0-0-0-0-0-0-0-0-0-0-0-0-|
A --------------------------------------------------------------------------------------|
E --------------------------------------------------------------------------------------|

Riff 7

E -------------------------------------------------------------------------------------------------|
B -------------------------------------------------------------------------------------------------|
G ----7----7----------------7----7-----------5-5-5----7----7----------------7----7-----------5-5-5-|
D ----7----7----------------7----7--------7--5-5-5----7----7----------------7----7--------7--5-5-5-|
A -5--5----5--8---7------5--5----5--9--10----3-3-3-5--5----5--8---7------5--5----5--9--10----3-3-3-|
E -5------------------8--5-------------------------5------------------8--5-------------------------|

Riff 7A

E ---------------------------------------------------------------------------------------------|
B ---------------------------------------------------------------------------------------------|
G ----7----7----------------7----7-----------5-5-5----7----7-----------------------------------|
D ----7----7----------------7----7--------7--5-5-5----7----7-------------7---5---3-------------|
A -5--5----5--8---7------5--5----5--9--10----3-3-3-5--5----5--8---7-----------------7---5---3--|
E -5------------------8--5-------------------------5------------------8-------------7---5---3--|

Riff 7B

E ------------------------------------------------------------------------- --- ----------------------|
B ------------------------------------------------------------------------- --- ----------------------|
G ----7----7----------------7----7-----------5-5-5----7----7--------------- -7- ----------------------|
D ----7----7----------------7----7--------7--5-5-5----7----7--10---10--10-- -7- -10---10---10--12-\\--|
A -5--5----5--8---7------5--5----5--9--10----3-3-3-5--5----5--8 ---7 --10-- -5- -8 ---7 ---10--12-\\-
E -5------------------8--5-------------------------5-------------------8 -- --- -----------8 --10-\\-
Добавлено: 21.11.2013
Другие материалы по этой песне:
  • Аккорды и текст

Страница создана 23.07.2012
http://primanota.ru/overkill/hello-from-the-gutter-chords.htm
Привет, Гость.
Предлагаем пройти революционный курс по гитаре.
Подарок от PrimaNota.Ru, забирай!