PrimaNota.ru - самый крупный в мире бесплатный архив песенных текстов, аккордов, табулатур и нот


Overkill - Long Time Dyin' - текст песни, таба, видео

Регистрация Запомнить меня
Войти через:  Facebook Google Twitter Vk Yandex Mail.ru

Overkill - Long Time Dyin' - текст песни, таба, видео

Печатать
Просмотров: 721
Уроки эстрадного вокала в Санкт-Петербурге
Gtr I (D A D G B E) - 'OVERKILL-Long Time Dyin '

This is just a starting point for the song, no one else has tabbed 
it out yet, so if anyone else has any input, please, share and
feel free to add to or correct any mistakes



MAIN RIFF
  Gtr I
|-------------------------------------------------|
|-------------------------------------------------|
|-------------------------------------------------|
|-------------------------------------------------|
|-0-3-5-6----------------0-3-5-0------------------|
|-0-3-5-6-6-6-6--6-6-6---0-3-5-0-0-0-0--0-0-0-----|



VERSE

|----------------------|-----------------------|
|----------------------|-----------------------|
|----------------------|-----------------------|
|----------------------|-----------------------|
|-----------------/6---|-----------------/6----|
|-0-0-0-0-0-0-0-0-/6---|-0-0-0-0-0-0-0-0-/6----|


|----------------------|--------------------------|
|----------------------|--------------------------|
|----------------------|--------------------------|
|----------------------|--------------------------|
|-----------------/6---|-----------------3-5-0----|
|-0-0-0-0-0-0-0-0-/6---|-0-0-0-0-0-0-0-0-3-5-0----|


Tablature Legend
----------------
 h   - hammer-on
 p   - pull-off
 b   - bend
 pb  - pre-bend
 r   - bend release (if no number after the r, then release immediately)
 /\  - slide into or out of (from/to "nowhere")
 s   - legato slide
 S   - shift slide
  - natural harmonic
[n]  - artificial harmonic
Добавлено: 31.10.2013
Другие материалы по этой песне:
  • Аккорды и текст

Страница создана 01.06.2012
http://primanota.ru/overkill/long-time-dyin-chords.htm
Привет, Гость.
Предлагаем пройти революционный курс по гитаре.
Подарок от PrimaNota.Ru, забирай!