PrimaNota.ru - самый крупный в мире бесплатный архив песенных текстов, аккордов, табулатур и нот


Overkill - Endless War - таба, видео

Регистрация Запомнить меня
Войти через:  Facebook Google Twitter Vk Yandex Mail.ru

Overkill - Endless War - таба, видео

Печатать
Просмотров: 140
Уроки эстрадного вокала в Санкт-Петербурге
Авторы: D.D. Verni, Bobby “Blitz” Ellsworth

-----------------------------------------------------------------------------
			     ENDLESS WAR - Overkill
-----------------------------------------------------------------------------
Tabbed by: tsoun-net

Tuning: E standard (EADGBe)



-- Intro :
e|-----------------------------------------------------------|
B|-----------------------------------------------------------|
G|-----------------------------------------------------------|
D|-------12---11--10----14---12------------------------------|
A|-2-----10---9---8-----12---10------------------------------|
E|-0---------------------------------------------------------|
x2

e|---------------------------------------------------------|
B|---------------------------------------------------------|
G|---------------------------------------------------------|
D|-9---------------------------12-----------11----------10-|
A|-7---------------------------10-----------9-----------8--|
E|---0-0-0-0-0-0-0-0-0-0-0-0-0----0-0-0-0-0---0-0-0-0-0----|
pm   . . . . . . . . . . . . .    . . . . .   . . . . .

----------------------------------------------------|
----------------------------------------------------|
----------------------------------------------------|
--------------------------14-----------12-----------|
--------------------------12-----------10-----------|
0-0-0-0-0-0-0-0-0-0-0-0-0----0-0-0-0-0----0-0-0-0-0-|
. . . . . . . . . . . . .    . . . . .    . . . . .


e|---------------------------------------------------------|
B|---------------------------------------------------------|
G|---------------------------------------------------------|
D|-9---------------------------12-----------11----------10-|
A|-7---------------------------10-----------9-----------8--|
E|---0-0-0-0-0-0-0-0-0-0-0-0-0----0-0-0-0-0---0-0-0-0-0----|
PM   . . . . . . . . . . . . .    . . . . .   . . . . .

------------------------------------|
------------------------------------|
------------------------------------|
--------------------------15-----12-|
--------------------------13-----10-|
0-0-0-0-0-0-0-0-0-0-0-0-0-----------|
. . . . . . . . . . . . .


-- Intro End :
e|------------------------------------------------------------|
B|------------------------------------------------------------|
G|------------------------------------------------------------|
D|------------------------------------------------------------|
A|-2---------3-2---------3-2---------3-2----------------------|
E|-0-0-0-0-0-1-0-0-0-0-0-1-0-0-0-0-0-1-0-1-3-5----------------|
PM   . . . .     . . . .     . . . .     . . .

e|------------------------------------------------------------|
B|------------------------------------------------------------|
G|------------------------------------------------------------|
D|------------------------------------------------------------|
A|-2---------3-2---------3-2----------------------------------|
E|-0-0-0-0-0-1-0-0-0-0-0-1-0----------------------------------|
PM   . . . .     . . . .

-- Verse :
e|------------------------------------------------------------|
B|------------------------------------------------------------|
G|------------------------------------------------------------|
D|------------------------------------------------------------|
A|-2---------3-2---------3-2---------3-2----------------------|
E|-0-0-0-0-0-1-0-0-0-0-0-1-0-0-0-0-0-1-0-1-3-5----------------|
PM   . . . .     . . . .     . . . .     . . .

E|------------------------------------------------------------|
B|------------------------------------------------------------|
G|------------------------------------------------------------|
D|-----------------------5-4---------5-4----------------------|
A|-2---------3-2---------3-2-2-2-2-2-3-2---2-3----------------|
E|-0-0-0-0-0-1-0-0-0-0-0-----------------0-0-1----------------|
PM   . . . .     . . . .     . . . .     .
x2 verse

-- Verse part 2 :
e|------------------------------------------------------------|
B|------------------------------------------------------------|
G|------------------------------------------------------------|
D|------------------------------------------------------------|
A|-2-----3-----5-----7-----2----------------------------------|
E|-0-0-0-1-0-0-3-0-0-5-0-0-0-0-0-0-0-0-0-0-0-0-0-0-0-0--------|
PM   . .   . .   . .   . .   . . . . . . . . . . . . .

e|------------------------------------------------------------|
B|------------------------------------------------------------|
G|------------------------------------------------------------|
D|---------------------3--------------------------------------|
A|-2-----3-----5-------1--0-1-0-1--0--------------------------|
E|-0-0-0-1-0-0-3-0-0-0---------------3------------------------|
PM   . .   . .   . . .    . . . .  . .

e|------------------------------------------------------------|
B|------------------------------------------------------------|
G|------------------------------------------------------------|
D|------------------------------------------------------------|
A|-2-----3-----5-----7-----2-----3----------------------------|
E|-0-0-0-1-0-0-3-0-0-5-0-0-0-0-0-1-0-0-0-0-0-0-0-0-0-0--------|
PM   . .   . .   . .   . .   . .   . . . . . . . . . .

e|------------------------------------------------------------|
B|------------------------------------------------------------|
G|------------------------------------------------------------|
D|---------------------3--------------------------------------|
A|-2-----3-----5-------1--0-1-0-1--0--------------------------|
E|-0-0-0-1-0-0-3-0-0-0---------------3------------------------|
PM   . .   . .   . . .    . . . .  . .


-- Prechorus :
e|------------------------------------------------------------|
B|------------------------------------------------------------|
G|------------------------------------------------------------|
D|-15-14-15-14-15-14------------------------------------------|
A|-13-12-13-12-13-12-17---------------------------------------|
E|-------------------15---------------------------------------|
pm                .  .

-- Chorus :
e|-----------------------------------------|
B|-----------------------------------------|
G|-----------------------------------------|
D|-----------12-7-12---------------12-7-12-|
A|-----------10-9-10---------------10-9-10-|
E|-0---0-0-0---------0-0-0---0-0-0---------|
pm .   . . .         . . .   . . .

e|--------------------------------------------------------------------|
B|--------------------------------------------------------------------|
G|--------------------------------------------------------------------|
D|---------------12-7-12-14-------------------------------------------|
A|---------------10-9-10-12-------------------------------------------|
E|-0-0-0---0-0-0------------11---11-11-11---11-11-11---11-11-11---11--|
PM . . .   . . .            .    .  .  .    .  .  .    .  .  .    .

e|-----------------------------------------|
B|-----------------------------------------|
G|-----------------------------------------|
D|-----------12-7-12---------------12-7-12-|
A|-----------10-9-10---------------10-9-10-|
E|-0---0-0-0---------0-0-0---0-0-0---------|
pm .   . . .         . . .   . . .


e|----------------------------------------------------------------|
B|----------------------------------------------------------------|
G|----------------------------------------------------------------|
D|---------------12-7-12-14---------------------------------------|
A|---------------10-9-10-12----------------------------10p9-------|
E|-0-0-0---0-0-0------------11---11-11-11---11-11-11--------9-----|
pm . . .   . . .            .    .  .  .    .  .  .

e|------------------------------------------|
B|------------------------------------------|
G|------------------------------------------|
D|-----------12-7-12---------------14-12-14-|
A|-----------10-9-10---------------12-10-12-|
E|-0---0-0-0---------0-0-0---0-0-0----------|
pm .   . . .         . . .   . . .

e|------------------------------------------------------------|
B|------------------------------------------------------------|
G|------------------------------------------------------------|
D|--------------------------12-11-----------------------------|
A|---------------14---12-14-------14-12-11-12-11--------------|
E|-0-0-0---0-0-0---------------------------------14-12--------|

e|-----------------------------------------|
B|-----------------------------------------|
G|-----------------------------------------|
D|-----------12-7-12---------------12-7-12-|
A|-----------10-9-10---------------10-9-10-|
E|-0---0-0-0---------0-0-0---0-0-0---------|
pm .   . . .         . . .   . . .

e|----------------------------------------------------------------|
B|----------------------------------------------------------------|
G|----------------------------------------------------------------|
D|---------------12-7-12-14---------------------------------------|
A|---------------10-9-10-12----------------------------10p9-------|
E|-0-0-0---0-0-0------------11---11-11-11---11-11-11--------9-----|
pm . . .   . . .            .    .  .  .    .  .  .


-- Back to the intro riff :
e|-----------------------------------------------------------|
B|-----------------------------------------------------------|
G|-----------------------------------------------------------|
D|-------12---11--10----14---12------------------------------|
A|-2-----10---9---8-----12---10------------------------------|
E|-0---------------------------------------------------------|

e|---------------------------------------------------------|
B|---------------------------------------------------------|
G|---------------------------------------------------------|
D|-9---------------------------12-----------11----------10-|
A|-7---------------------------10-----------9-----------8--|
E|---0-0-0-0-0-0-0-0-0-0-0-0-0----0-0-0-0-0---0-0-0-0-0----|
PM   . . . . . . . . . . . . .    . . . . .   . . . . .

------------------------------------|
------------------------------------|
------------------------------------|
--------------------------15-----12-|
--------------------------13-----10-|
0-0-0-0-0-0-0-0-0-0-0-0-0-----------|
. . . . . . . . . . . . .

-- Verse :
e|------------------------------------------------------------|
B|------------------------------------------------------------|
G|------------------------------------------------------------|
D|------------------------------------------------------------|
A|-2---------3-2---------3-2---------3-2----------------------|
E|-0-0-0-0-0-1-0-0-0-0-0-1-0-0-0-0-0-1-0-1-3-5----------------|
PM   . . . .     . . . .     . . . .     . . .

E|------------------------------------------------------------|
B|------------------------------------------------------------|
G|------------------------------------------------------------|
D|-----------------------5-4---------5-4----------------------|
A|-2---------3-2---------3-2-2-2-2-2-3-2---2-3----------------|
E|-0-0-0-0-0-1-0-0-0-0-0-----------------0-0-1----------------|
PM   . . . .     . . . .     . . . .     .
x2 verse

-- Verse part 2 :
e|------------------------------------------------------------|
B|------------------------------------------------------------|
G|------------------------------------------------------------|
D|------------------------------------------------------------|
A|-2-----3-----5-----7-----2----------------------------------|
E|-0-0-0-1-0-0-3-0-0-5-0-0-0-0-0-0-0-0-0-0-0-0-0-0-0-0--------|
PM   . .   . .   . .   . .   . . . . . . . . . . . . .

e|------------------------------------------------------------|
B|------------------------------------------------------------|
G|------------------------------------------------------------|
D|---------------------3--------------------------------------|
A|-2-----3-----5-------1--0-1-0-1--0--------------------------|
E|-0-0-0-1-0-0-3-0-0-0---------------3------------------------|
PM   . .   . .   . . .    . . . .  . .

e|------------------------------------------------------------|
B|------------------------------------------------------------|
G|------------------------------------------------------------|
D|------------------------------------------------------------|
A|-2-----3-----5-----7-----2-----3----------------------------|
E|-0-0-0-1-0-0-3-0-0-5-0-0-0-0-0-1-0-0-0-0-0-0-0-0-0-0--------|
PM   . .   . .   . .   . .   . .   . . . . . . . . . .

e|------------------------------------------------------------|
B|------------------------------------------------------------|
G|------------------------------------------------------------|
D|---------------------3--------------------------------------|
A|-2-----3-----5-------1--0-1-0-1--0--------------------------|
E|-0-0-0-1-0-0-3-0-0-0---------------3------------------------|
PM   . .   . .   . . .    . . . .  . .


-- Prechorus :
e|------------------------------------------------------------|
B|------------------------------------------------------------|
G|------------------------------------------------------------|
D|-15-14-15-14-15-14------------------------------------------|
A|-13-12-13-12-13-12-17---------------------------------------|
E|-------------------15---------------------------------------|
pm                .  .

-- Chorus :
e|-----------------------------------------|
B|-----------------------------------------|
G|-----------------------------------------|
D|-----------12-7-12---------------12-7-12-|
A|-----------10-9-10---------------10-9-10-|
E|-0---0-0-0---------0-0-0---0-0-0---------|
pm .   . . .         . . .   . . .

e|--------------------------------------------------------------------|
B|--------------------------------------------------------------------|
G|--------------------------------------------------------------------|
D|---------------12-7-12-14-------------------------------------------|
A|---------------10-9-10-12-------------------------------------------|
E|-0-0-0---0-0-0------------11---11-11-11---11-11-11---11-11-11---11--|
PM . . .   . . .            .    .  .  .    .  .  .    .  .  .    .

e|-----------------------------------------|
B|-----------------------------------------|
G|-----------------------------------------|
D|-----------12-7-12---------------12-7-12-|
A|-----------10-9-10---------------10-9-10-|
E|-0---0-0-0---------0-0-0---0-0-0---------|
pm .   . . .         . . .   . . .


e|----------------------------------------------------------------|
B|----------------------------------------------------------------|
G|----------------------------------------------------------------|
D|---------------12-7-12-14---------------------------------------|
A|---------------10-9-10-12----------------------------10p9-------|
E|-0-0-0---0-0-0------------11---11-11-11---11-11-11--------9-----|
pm . . .   . . .            .    .  .  .    .  .  .

e|------------------------------------------|
B|------------------------------------------|
G|------------------------------------------|
D|-----------12-7-12---------------14-12-14-|
A|-----------10-9-10---------------12-10-12-|
E|-0---0-0-0---------0-0-0---0-0-0----------|
pm .   . . .         . . .   . . .

e|------------------------------------------------------------|
B|------------------------------------------------------------|
G|------------------------------------------------------------|
D|--------------------------12-11-----------------------------|
A|---------------14---12-14-------14-12-11-12-11--------------|
E|-0-0-0---0-0-0---------------------------------14-12--------|

e|-----------------------------------------|
B|-----------------------------------------|
G|-----------------------------------------|
D|-----------12-7-12---------------12-7-12-|
A|-----------10-9-10---------------10-9-10-|
E|-0---0-0-0---------0-0-0---0-0-0---------|
pm .   . . .         . . .   . . .

e|----------------------------------------------------------------|
B|----------------------------------------------------------------|
G|----------------------------------------------------------------|
D|---------------12-7-12-14---------------------------------------|
A|---------------10-9-10-12----------------------------10p9-------|
E|-0-0-0---0-0-0------------11---11-11-11---11-11-11--------9-----|
pm . . .   . . .            .    .  .  .    .  .  .


-- Bridge :

e|-------------------------------------------------------------------------|
B|-------------------------------------------------------------------------|
G|-------------------------------------------------------------------------|
D|---------------5-----5-----------5----------------5----------------------|
A|-----------5/7---7---3-------5/7---7---5-------5/7---7-------------3p2---|
E|-0---0-0-0---------0---0-0-0---------0-3-0-0-0---------0-1-0-1-3-5-----2-|
pm .   . . .         .   . . .         .   . . .         .
x2

e|-----------------------------------------------------------------|
B|-----------------------------------------------------------------|
G|-----------------------------------------------------------------|
D|-2---------5-----5---------5---------------5---------------------|
A|-0-----5/7---7---3-----5/7---7---5-----5/7---7-------------3p2---|
E|---------------0---------------0-3-------------0-1-0-1-3-5-----2-|
pm               .               .               .
x2

-- Bridge part 2 :
e|------------------------------------------------------------|
B|------------------------------------------------------------|
G|------------------------------------------------------------|
D|-----------------------------------------------------4-5----|
A|-----------------------------------------------------2-3----|
E|-0---2-2-2-2-2---0---2-2-2-2-2---0---2-2-2-2-2---0----------|
pm .   . . . . .   .   . . . . .   .   . . . . .   .

e|------------------------------------------------------------|
B|------------------------------------------------------------|
G|------------------------------------------------------------|
D|-------------------------------------------------7-6-5------|
A|-------------------------------------------------5-4-3------|
E|-0---2-2-2-2-2---0---2-2-2-2-2---0---2-2-2-2-2--------------|
PM .   . . . . .   .   . . . . .   .   . . . . .


e|------------------------------------------------------------|
B|------------------------------------------------------------|
G|------------------------------------------------------------|
D|-----------------------------------------------------4-5----|
A|-----------------------------------------------------2-3----|
E|-0---2-2-2-2-2---0---2-2-2-2-2---0---2-2-2-2-2---0----------|
pm .   . . . . .   .   . . . . .   .   . . . . .   .

e|---------------------------------------------------|
B|---------------------------------------------------|
G|---------------------------------------------------|
D|---------------------------------------------------|
A|-------------------------------------------3p2-----|
E|-0---2-2-2-2-2---0---2-2-2-2-2---1-0-1-3-5-----2---|
pm .   . . . . .   .   . . . . .


e|------------------------------------------------------------|
B|------------------------------------------------------------|
G|------------------------------------------------------------|
D|-----------------------------------------------------4-5----|
A|-----------------------------------------------------2-3----|
E|-0---2-2-2-2-2---0---2-2-2-2-2---0---2-2-2-2-2---0----------|
pm .   . . . . .   .   . . . . .   .   . . . . .   .

e|------------------------------------------------------------|
B|------------------------------------------------------------|
G|------------------------------------------------------------|
D|-------------------------------------------------7-6-5------|
A|-------------------------------------------------5-4-3------|
E|-0---2-2-2-2-2---0---2-2-2-2-2---0---2-2-2-2-2--------------|
PM .   . . . . .   .   . . . . .   .   . . . . .


e|------------------------------------------------------------|
B|------------------------------------------------------------|
G|------------------------------------------------------------|
D|-----------------------------------------------------4-5----|
A|-----------------------------------------------------2-3----|
E|-0---2-2-2-2-2---0---2-2-2-2-2---0---2-2-2-2-2---0----------|
pm .   . . . . .   .   . . . . .   .   . . . . .   .

e|--------------------------------------------------|
B|--------------------------------------------------|
G|--------------------------------------------------|
D|--------------------------------------------------|
A|-----------------------------------------5-4-3----|
E|-0---2-2-2-2-2---0---2-2-2-2-2---1-0-1-3----------|
PM .   . . . . .   .   . . . . .   . . . .



e|------------------------------------------------------------|
B|------------------------------------------------------------|
G|------------------------------------------------------------|
D|-4-5-4-------------4-------7-6------------------------------|
A|-2-3-2-2---2-2-2-2-2-------5-4------------------------------|
E|---------------------3-2-0----------------------------------|
pm       .   . . . .   . . .


e|------------------------------------------------------------|
B|------------------------------------------------------------|
G|------------------------------------------------------------|
D|-4-5-4-------------4----------------------------------------|
A|-2-3-2-2---2-2-2-2-2-----2----------------------------------|
E|---------------------3-2-0----------------------------------|
pm       .   . . . .   . . .

e|------------------------------------------------------------|
B|------------------------------------------------------------|
G|------------------------------------------------------------|
D|-----------------------------------------------------4-5----|
A|-----------------------------------------------------2-3----|
E|-0---2-2-2-2-2---0---2-2-2-2-2---0---2-2-2-2-2---0----------|
pm .   . . . . .   .   . . . . .   .   . . . . .   .

e|---------------------------------------------------|
B|---------------------------------------------------|
G|---------------------------------------------------|
D|---------------------------------------------------|
A|-------------------------------------------3p2-----|
E|-0---2-2-2-2-2---0---2-2-2-2-2---1-0-1-3-5-----2---|
pm .   . . . . .   .   . . . . .


e|------------------------------------------------------------|
B|------------------------------------------------------------|
G|------------------------------------------------------------|
D|-----------------------------------------------------4-5----|
A|-----------------------------------------------------2-3----|
E|-0---2-2-2-2-2---0---2-2-2-2-2---0---2-2-2-2-2---0----------|
pm .   . . . . .   .   . . . . .   .   . . . . .   .

e|------------------------------------------------------------|
B|------------------------------------------------------------|
G|------------------------------------------------------------|
D|-------------------------------------------------7-6-5------|
A|-------------------------------------------------5-4-3------|
E|-0---2-2-2-2-2---0---2-2-2-2-2---0---2-2-2-2-2--------------|
PM .   . . . . .   .   . . . . .   .   . . . . .

e|------------------------------------------------------------|
B|------------------------------------------------------------|
G|------------------------------------------------------------|
D|-----------------------------------------------------4-5----|
A|-----------------------------------------------------2-3----|
E|-0---2-2-2-2-2---0---2-2-2-2-2---0---2-2-2-2-2---0----------|
pm .   . . . . .   .   . . . . .   .   . . . . .   .

e|------------------------------------------------------------|
B|------------------------------------------------------------|
G|------------------------------------------------------------|
D|-------------------------------------------------7-6-5------|
A|-------------------------------------------------5-4-3------|
E|-0---2-2-2-2-2---0---2-2-2-2-2---0---2-2-2-2-2--------------|
PM .   . . . . .   .   . . . . .   .   . . . . .



e|------------------------------------------------------------|
B|------------------------------------------------------------|
G|------------------------------------------------------------|
D|-4-5-4-------------4-------7-6------------------------------|
A|-2-3-2-2---2-2-2-2-2-------5-4------------------------------|
E|---------------------3-2-0----------------------------------|
pm       .   . . . .   . . .

e|------------------------------------------------------------|
B|------------------------------------------------------------|
G|------------------------------------------------------------|
D|-4-5-4-------------4-------7-6------------------------------|
A|-2-3-2-2---2-2-2-2-2-------5-4------------------------------|
E|---------------------3-2-0----------------------------------|
pm       .   . . . .   . . .



e|----------------------------------------------------------------|
B|----------------------------------------------------------------|
G|----------------------------------------------------------------|
D|-6-7-6-------------6-------9-7----------------------------------|
A|-4-5-4-4---4-4-4-4-4-------7-6----------------------------------|
E|---------------------5-4-2--------------------------------------|
pm       .   . . . .   . . .

e|---------------------------------------------------------------|
B|---------------------------------------------------------------|
G|---------------------------------------------------------------|
D|-6-7-6-------------7-----------9-------------------------------|
A|-4-5-4-4---4-4-4-4-5---5-5-5-5-7-------------------------------|
E|---------------------------------------------------------------|
pm       .   . . . .     . . . .



-- Rythm for the solo :

e|------------------------------------------------------------|
B|------------------------------------------------------------|
G|------------------------------------------------------------|
D|-----------------------------------------------------4-5----|
A|-----------------------------------------------------2-3----|
E|-0---2-2-2-2-2---0---2-2-2-2-2---0---2-2-2-2-2---0----------|
pm .   . . . . .   .   . . . . .   .   . . . . .   .

e|------------------------------------------------------------|
B|------------------------------------------------------------|
G|------------------------------------------------------------|
D|-------------------------------------------------7-6-5------|
A|-------------------------------------------------5-4-3------|
E|-0---2-2-2-2-2---0---2-2-2-2-2---0---2-2-2-2-2--------------|
PM .   . . . . .   .   . . . . .   .   . . . . .

e|------------------------------------------------------------|
B|------------------------------------------------------------|
G|------------------------------------------------------------|
D|-----------------------------------------------------4-5----|
A|-----------------------------------------------------2-3----|
E|-0---2-2-2-2-2---0---2-2-2-2-2---0---2-2-2-2-2---0----------|
pm .   . . . . .   .   . . . . .   .   . . . . .   .

e|------------------------------------------------------------|
B|------------------------------------------------------------|
G|------------------------------------------------------------|
D|-------------------------------------------------7-6-5------|
A|-------------------------------------------------5-4-3------|
E|-0---2-2-2-2-2---0---2-2-2-2-2---0---2-2-2-2-2--------------|
PM .   . . . . .   .   . . . . .   .   . . . . .


e|------------------------------------------------------------|
B|------------------------------------------------------------|
G|------------------------------------------------------------|
D|------------------------------------------------------------|
A|-2---------3-2---------3-2---------3-2----------------------|
E|-0-0-0-0-0-1-0-0-0-0-0-1-0-0-0-0-0-1-0-1-3-5----------------|
PM   . . . .     . . . .     . . . .     . . .

E|------------------------------------------------------------|
B|------------------------------------------------------------|
G|------------------------------------------------------------|
D|-----------------------5-4---------5-4----------------------|
A|-2---------3-2---------3-2-2-2-2-2-3-2---2-3----------------|
E|-0-0-0-0-0-1-0-0-0-0-0-----------------0-0-1----------------|
PM   . . . .     . . . .     . . . .     .
x2


-- Harmony part :
Rythm :

e|------------------------------------------------------------|
B|------------------------------------------------------------|
G|------------------------------------------------------------|
D|----------5--------7----------------------------------------|
A|-2--------3--------5-------9--------5--------4--------------|
E|-0-------------------------7--------3--------2--------------|

Lead :
e|------------------------------------------------------------|
B|------------------------------------------------------------|
G|------------------------------------------------------------|
D|------------------------------------------------------------|
A|-7-7-7p5-----7-7-7p5-----3-3-3p2---/5~----------------------|
E|---------7-----------7-----------3--------------------------|


e|------------------------------------------------------------|
B|------------------------------------------------------------|
G|------------------------------------------------------------|
D|-9-9-7h9p7-----9-9-7h9p7--------------9----------7----------|
A|-----------9-------------9---10----10-----9----9------------|
E|--------------------------------12----------10--------------|
x2 the 2 previous bars

e|------------------------------------------------------------|
B|------------------------------------------------------------|
G|------------------------------------------------------------|
D|-------------5-5-5p4-----7-7-7p5-----7-8-9------------------|
A|-7-7-7p5-------------5-----------7---5-6-7------------------|
E|---------7--------------------------------------------------|
x3

e|------------------------------------------------------------|
B|------------------------------------------------------------|
G|------------------------------------------------------------|
D|-------------5-5-5p4-----7-7-7p5-----7-8-9---7-8-9---7-8-9--|
A|-7-7-7p5-------------5-----------7---5-6-7---5-6-7---5-6-7--|
E|---------7--------------------------------------------------|

-- Back to intro riff :
e|-----------------------------------------------------------|
B|-----------------------------------------------------------|
G|-----------------------------------------------------------|
D|-------12---11--10----14---12------------------------------|
A|-2-----10---9---8-----12---10------------------------------|
E|-0---------------------------------------------------------|


e|---------------------------------------------------------|
B|---------------------------------------------------------|
G|---------------------------------------------------------|
D|-9---------------------------12-----------11----------10-|
A|-7---------------------------10-----------9-----------8--|
E|---0-0-0-0-0-0-0-0-0-0-0-0-0----0-0-0-0-0---0-0-0-0-0----|
PM   . . . . . . . . . . . . .    . . . . .   . . . . .

------------------------------------|
------------------------------------|
------------------------------------|
--------------------------15-----12-|
--------------------------13-----10-|
0-0-0-0-0-0-0-0-0-0-0-0-0-----------|
. . . . . . . . . . . . .

-- Verse :
e|------------------------------------------------------------|
B|------------------------------------------------------------|
G|------------------------------------------------------------|
D|------------------------------------------------------------|
A|-2---------3-2---------3-2---------3-2----------------------|
E|-0-0-0-0-0-1-0-0-0-0-0-1-0-0-0-0-0-1-0-1-3-5----------------|
PM   . . . .     . . . .     . . . .     . . .

E|------------------------------------------------------------|
B|------------------------------------------------------------|
G|------------------------------------------------------------|
D|-----------------------5-4---------5-4----------------------|
A|-2---------3-2---------3-2-2-2-2-2-3-2---2-3----------------|
E|-0-0-0-0-0-1-0-0-0-0-0-----------------0-0-1----------------|
PM   . . . .     . . . .     . . . .     .
x2 verse

-- Verse part 2 :
e|------------------------------------------------------------|
B|------------------------------------------------------------|
G|------------------------------------------------------------|
D|------------------------------------------------------------|
A|-2-----3-----5-----7-----2----------------------------------|
E|-0-0-0-1-0-0-3-0-0-5-0-0-0-0-0-0-0-0-0-0-0-0-0-0-0-0--------|
PM   . .   . .   . .   . .   . . . . . . . . . . . . .

e|------------------------------------------------------------|
B|------------------------------------------------------------|
G|------------------------------------------------------------|
D|---------------------3--------------------------------------|
A|-2-----3-----5-------1--0-1-0-1--0--------------------------|
E|-0-0-0-1-0-0-3-0-0-0---------------3------------------------|
PM   . .   . .   . . .    . . . .  . .

e|------------------------------------------------------------|
B|------------------------------------------------------------|
G|------------------------------------------------------------|
D|------------------------------------------------------------|
A|-2-----3-----5-----7-----2-----3----------------------------|
E|-0-0-0-1-0-0-3-0-0-5-0-0-0-0-0-1-0-0-0-0-0-0-0-0-0-0--------|
PM   . .   . .   . .   . .   . .   . . . . . . . . . .

e|------------------------------------------------------------|
B|------------------------------------------------------------|
G|------------------------------------------------------------|
D|---------------------3--------------------------------------|
A|-2-----3-----5-------1--0-1-0-1--0--------------------------|
E|-0-0-0-1-0-0-3-0-0-0---------------3------------------------|
PM   . .   . .   . . .    . . . .  . .


-- Prechorus :
e|------------------------------------------------------------|
B|------------------------------------------------------------|
G|------------------------------------------------------------|
D|-15-14-15-14-15-14------------------------------------------|
A|-13-12-13-12-13-12-17---------------------------------------|
E|-------------------15---------------------------------------|
pm                .  .

-- Chorus :
e|-----------------------------------------|
B|-----------------------------------------|
G|-----------------------------------------|
D|-----------12-7-12---------------12-7-12-|
A|-----------10-9-10---------------10-9-10-|
E|-0---0-0-0---------0-0-0---0-0-0---------|
pm .   . . .         . . .   . . .

e|--------------------------------------------------------------------|
B|--------------------------------------------------------------------|
G|--------------------------------------------------------------------|
D|---------------12-7-12-14-------------------------------------------|
A|---------------10-9-10-12-------------------------------------------|
E|-0-0-0---0-0-0------------11---11-11-11---11-11-11---11-11-11---11--|
PM . . .   . . .            .    .  .  .    .  .  .    .  .  .    .

e|-----------------------------------------|
B|-----------------------------------------|
G|-----------------------------------------|
D|-----------12-7-12---------------12-7-12-|
A|-----------10-9-10---------------10-9-10-|
E|-0---0-0-0---------0-0-0---0-0-0---------|
pm .   . . .         . . .   . . .


e|----------------------------------------------------------------|
B|----------------------------------------------------------------|
G|----------------------------------------------------------------|
D|---------------12-7-12-14---------------------------------------|
A|---------------10-9-10-12----------------------------10p9-------|
E|-0-0-0---0-0-0------------11---11-11-11---11-11-11--------9-----|
pm . . .   . . .            .    .  .  .    .  .  .

e|------------------------------------------|
B|------------------------------------------|
G|------------------------------------------|
D|-----------12-7-12---------------14-12-14-|
A|-----------10-9-10---------------12-10-12-|
E|-0---0-0-0---------0-0-0---0-0-0----------|
pm .   . . .         . . .   . . .

e|------------------------------------------------------------|
B|------------------------------------------------------------|
G|------------------------------------------------------------|
D|--------------------------12-11-----------------------------|
A|---------------14---12-14-------14-12-11-12-11--------------|
E|-0-0-0---0-0-0---------------------------------14-12--------|

e|-----------------------------------------|
B|-----------------------------------------|
G|-----------------------------------------|
D|-----------12-7-12---------------12-7-12-|
A|-----------10-9-10---------------10-9-10-|
E|-0---0-0-0---------0-0-0---0-0-0---------|
pm .   . . .         . . .   . . .

e|----------------------------------------------------------------|
B|----------------------------------------------------------------|
G|----------------------------------------------------------------|
D|---------------12-7-12-14---------------------------------------|
A|---------------10-9-10-12----------------------------10p9-------|
E|-0-0-0---0-0-0------------11---11-11-11---11-11-11--------9-----|
pm . . .   . . .            .    .  .  .    .  .  .


-- Ending : Back to Harmony part :
Rythm :
e|------------------------------------------------------------|
B|------------------------------------------------------------|
G|------------------------------------------------------------|
D|----------5--------7----------------------------------------|
A|-2--------3--------5-------9--------5--------4--------------|
E|-0-------------------------7--------3--------2--------------|

Lead :
e|------------------------------------------------------------|
B|------------------------------------------------------------|
G|------------------------------------------------------------|
D|------------------------------------------------------------|
A|-7-7-7p5-----7-7-7p5-----3-3-3p2---/5~----------------------|
E|---------7-----------7-----------3--------------------------|


e|------------------------------------------------------------|
B|------------------------------------------------------------|
G|------------------------------------------------------------|
D|-9-9-7h9p7-----9-9-7h9p7--------------9----------7----------|
A|-----------9-------------9---10----10-----9----9------------|
E|--------------------------------12----------10--------------|
x2 the 2 previous bars

e|------------------------------------------------------------|
B|------------------------------------------------------------|
G|------------------------------------------------------------|
D|-------------5-5-5p4-----7-7-7p5-----7-8-9------------------|
A|-7-7-7p5-------------5-----------7---5-6-7------------------|
E|---------7--------------------------------------------------|
x3

e|------------------------------------|
B|------------------------------------|
G|------------------------------------|
D|-------------5-5-5p4-----7-7-7p5----|
A|-7-7-7p5-------------5-----------7--|
E|---------7--------------------------|

e|-----------------------------------------------------|
B|-----------------------------------------------------|
G|-----------------------------------------------------|
D|-10-9-------9----------------------------------------|
A|------12-10---12-10-9-12-10-9----10-9----12-14\\\\\--|
E|------------------------------12------12-10-12\\\\\--|



************************************

| /   slide up
| \   slide down
| h   hammer-on
| p   pull-off
| ~   vibrato
| +   harmonic
| x   Mute note
| b   Bend
| pb  Pre-bend
| br  Bend release
| pbr Pre-bend release
| brb Bend release bend

************************************
Добавлено: 03.08.2013
Другие материалы по этой песне:
  • Аккорды и текст

Страница создана 03.08.2013
http://primanota.ru/overkill/endless-war-chords.htm
Привет, Гость.
Предлагаем пройти революционный курс по гитаре.
Подарок от PrimaNota.Ru, забирай!