PrimaNota.ru - самый крупный в мире бесплатный архив песенных текстов, аккордов, табулатур и нот


Overkill - Im Allright - таба, видео

Регистрация Запомнить меня
Войти через:  Facebook Google Twitter Vk Yandex Mail.ru

Overkill - Im Allright - таба, видео

Печатать
Просмотров: 82
                                  I'm Alright                                   


Distortion Guitar
Dropped D



                                                                      
E||------------------|------------------|----------------------------|
B||------------------|------------------|----------------------------|
G||------------------|------------------|----------------------------|
D||------------------|------------------|----------------------------|
A||------------------|------------------|----------------------------|
D||------------------|------------------|--0--0--1-3-1--0--0--1-3-1--|


                                                         
---------------------------|----------------------------|
---------------------------|----------------------------|
---------------------------|----------------------------|
---------------------------|----------------------------|
---------------------------|----------------------------|
--0--0--1-3-1--0--3--5--1--|--0--0--1-3-1--0--0--1-3-1--|


                                                         
---------------------------|----------------------------|
---------------------------|----------------------------|
---------------------------|----------------------------|
---------------------------|----------------------------|
---------------------------|----------------------------|
--0--0--1-3-1--0--3--5--1--|--0--0--1-3-1--0--0--1-3-1--|


                                                                             
---------------------------|----------------------------|-------------------|
---------------------------|----------------------------|-------------------|
---------------------------|----------------------------|-------------------|
---------------------------|----------------------------|-------------------|
---------------------------|----------------------------|-------------------|
--0--0--1-3-1--0--3--5--1--|--0--0--1-3-1--0--0--1-3-1--|--0----------------|


                                                         
----------------------------|---------------------------|
----------------------------|---------------------------|
----------------------------|---------------------------|
----------------------------|---------------------------|
----------------------------|---------------------------|
--0--0--1-3-1--0--0--1-3-1--|--0--0--1-3-1--0--3--5--1--|


                                                         
----------------------------|---------------------------|
----------------------------|---------------------------|
----------------------------|---------------------------|
----------------------------|---------------------------|
----------------------------|---------------------------|
--0--0--1-3-1--0--0--1-3-1--|--0--0--1-3-1--0--3--5--1--|


                                                         
----------------------------|---------------------------|
----------------------------|---------------------------|
----------------------------|---------------------------|
----------------------------|---------------------------|
----------------------------|---------------------------|
--0--0--1-3-1--0--0--1-3-1--|--0--0--1-3-1--0--3--5--1--|


                                                        
----------------------------|--------------------------|
----------------------------|--------------------------|
----------------------------|--------------------------|
----------------------------|--------------------------|
----------------------------|--------------------------|
--0--0--1-3-1--0--0--1-3-1--|--0--0--0--0--0--0--0--0--|


                                                         
----------------------------|---------------------------|
----------------------------|---------------------------|
----------------------------|---------------------------|
----------------------------|---------------------------|
----------------------------|---------------------------|
--0--0--1-3-1--0--0--1-3-1--|--0--0--1-3-1--0--3--5--1--|


                                                         
----------------------------|---------------------------|
----------------------------|---------------------------|
----------------------------|---------------------------|
----------------------------|---------------------------|
----------------------------|---------------------------|
--0--0--1-3-1--0--0--1-3-1--|--0--0--1-3-1--0--3--5--1--|


                                                         
----------------------------|---------------------------|
----------------------------|---------------------------|
----------------------------|---------------------------|
----------------------------|---------------------------|
----------------------------|---------------------------|
--0--0--1-3-1--0--0--1-3-1--|--0--0--1-3-1--0--3--5--1--|


                                                        
----------------------------|--------------------------|
----------------------------|--------------------------|
----------------------------|--------------------------|
----------------------------|--------------------------|
----------------------------|--------------------------|
--0--0--1-3-1--0--0--1-3-1--|--0--0--0--0--0--0--0--0--|


                                                                               
-------------------------|--------------------------|-------------------------|
-------------------------|--------------------------|-------------------------|
-------------------------|--------------------------|-------------------------|
-------------------------|--------------------------|-------------------------|
-------------------------|--------------------------|-------------------------|
--0--3--6--5----0--3--5--|--0--3--6--5--0--0--0--0--|--0--3--6--5----0--3--5--|


                                                                              
------------------------|-------------------------|--------------------------|
------------------------|-------------------------|--------------------------|
------------------------|-------------------------|--------------------------|
------------------------|-------------------------|--------------------------|
------------------------|-------------------------|--------------------------|
--0--3--6--5----3---1---|--0--3--6--5----0--3--5--|--0--3--6--5--0--0--0--0--|


                                                                               
-------------------------|--------------|------------------|------------------|
-------------------------|--------------|------------------|------------------|
-------------------------|--------------|------------------|------------------|
-------------------------|--------------|------------------|------------------|
-------------------------|--------------|------------------|------------------|
--0--3--6--5----0--3--5--|--0--3--6--5--|------------------|------------------|


                                                                         
--------------------------|--------------------------|------------------|
--------------------------|--------------------------|------------------|
--------------------------|--------------------------|------------------|
--0--0--0--0--0--0--0--0--|--0--0--0--0--0-----------|------------------|
--------------------------|--------------------------|------------------|
--------------------------|-----------------3--2--1--|------------------|


                                                      
--------------------------|--------------------------|
--------------------------|--------------------------|
--------------------------|--------------------------|
--------------------------|--------------------------|
--------------------------|--------------------------|
--0--6--0--5--0--0--3--5--|--0--6--0--5--0--0--3--5--|


                                                                             
--------------------------|--------------------------|----------------------|
--------------------------|--------------------------|----------------------|
--------------------------|--------------------------|----------------------|
--------------------------|--------------------------|----------------------|
--------------------------|--------------------------|----------------------|
--0--6--0--5--0--0--3--5--|--0--6--0--5--0--0--3--5--|--0--0------0--0------|


                                                         
----------------------------|---------------------------|
----------------------------|---------------------------|
----------------------------|---------------------------|
----------------------------|---------------------------|
----------------------------|---------------------------|
--0--0--1-3-1--0--0--1-3-1--|--0--0--1-3-1--0--3--5--1--|


                                                         
----------------------------|---------------------------|
----------------------------|---------------------------|
----------------------------|---------------------------|
----------------------------|---------------------------|
----------------------------|---------------------------|
--0--0--1-3-1--0--0--1-3-1--|--0--0--1-3-1--0--3--5--1--|


                                                         
----------------------------|---------------------------|
----------------------------|---------------------------|
----------------------------|---------------------------|
----------------------------|---------------------------|
----------------------------|---------------------------|
--0--0--1-3-1--0--0--1-3-1--|--0--0--1-3-1--0--3--5--1--|


                                                        
----------------------------|--------------------------|
----------------------------|--------------------------|
----------------------------|--------------------------|
----------------------------|--------------------------|
----------------------------|--------------------------|
--0--0--1-3-1--0--0--1-3-1--|--0--0--0--0--0--0--0--0--|


                                                         
----------------------------|---------------------------|
----------------------------|---------------------------|
----------------------------|---------------------------|
----------------------------|---------------------------|
----------------------------|---------------------------|
--0--0--1-3-1--0--0--1-3-1--|--0--0--1-3-1--0--3--5--1--|


                                                         
----------------------------|---------------------------|
----------------------------|---------------------------|
----------------------------|---------------------------|
----------------------------|---------------------------|
----------------------------|---------------------------|
--0--0--1-3-1--0--0--1-3-1--|--0--0--1-3-1--0--3--5--1--|


                                                         
----------------------------|---------------------------|
----------------------------|---------------------------|
----------------------------|---------------------------|
----------------------------|---------------------------|
----------------------------|---------------------------|
--0--0--1-3-1--0--0--1-3-1--|--0--0--1-3-1--0--3--5--1--|


                                                        
----------------------------|--------------------------|
----------------------------|--------------------------|
----------------------------|--------------------------|
----------------------------|--------------------------|
----------------------------|--------------------------|
--0--0--1-3-1--0--0--1-3-1--|--0--0--0--0--0--0--0--0--|


                                                                               
-------------------------|--------------------------|-------------------------|
-------------------------|--------------------------|-------------------------|
-------------------------|--------------------------|-------------------------|
-------------------------|--------------------------|-------------------------|
-------------------------|--------------------------|-------------------------|
--0--3--6--5----0--3--5--|--0--3--6--5--0--0--0--0--|--0--3--6--5----0--3--5--|


                                                                              
------------------------|-------------------------|--------------------------|
------------------------|-------------------------|--------------------------|
------------------------|-------------------------|--------------------------|
------------------------|-------------------------|--------------------------|
------------------------|-------------------------|--------------------------|
--0--3--6--5----3---1---|--0--3--6--5----0--3--5--|--0--3--6--5--0--0--0--0--|


                                                                               
-------------------------|--------------|------------------|------------------|
-------------------------|--------------|------------------|------------------|
-------------------------|--------------|------------------|------------------|
-------------------------|--------------|------------------|------------------|
-------------------------|--------------|------------------|------------------|
--0--3--6--5----0--3--5--|--0--3--6--5--|------------------|------------------|


                                                                         
--------------------------|--------------------------|------------------|
--------------------------|--------------------------|------------------|
--------------------------|--------------------------|------------------|
--0--0--0--0--0--0--0--0--|--0--0--0--0--0-----------|------------------|
--------------------------|--------------------------|------------------|
--------------------------|-----------------3--2--1--|------------------|


                                                      
--------------------------|--------------------------|
--------------------------|--------------------------|
--------------------------|--------------------------|
--------------------------|--------------------------|
--------------------------|--------------------------|
--0--6--0--5--0--0--3--5--|--0--6--0--5--0--0--3--5--|


                                                                             
--------------------------|--------------------------|----------------------|
--------------------------|--------------------------|----------------------|
--------------------------|--------------------------|----------------------|
--------------------------|--------------------------|----------------------|
--------------------------|--------------------------|----------------------|
--0--6--0--5--0--0--3--5--|--0--6--0--5--0--0--3--5--|--0--0------0--0------|


                                                                           
----------------------------|----------------------|----------------------|
----------------------------|----------------------|----------------------|
----------------------------|----------------------|----------------------|
----------------------------|----------------------|----------------------|
----------------------------|----------------------|----------------------|
--0--0------3-3-3-3-3-3-3-3-|--0--0------0--0------|--0--0--------3---1---|


                                                                           
----------------------|----------------------------|----------------------|
----------------------|----------------------------|----------------------|
----------------------|----------------------------|----------------------|
----------------------|----------------------------|----------------------|
----------------------|----------------------------|----------------------|
--0--0------0--0------|--0--0------3-3-3-3-3-3-3-3-|--0--0------0--0------|


                                                       
-----------------------|------------------------------|
-----------------------|------------------------------|
-----------------------|------------------------------|
-----------------------|------------------------------|
-----------------------|------------------------------|
--0--0--------3--2--1--|--0--0-0-0-0--0-0--0-0-0-0--0-|


                                                              
------------------------------|------------------------------|
------------------------------|------------------------------|
------------------------------|------------------------------|
------------------------------|------------------------------|
------------------------------|------------------------------|
--0--0-0-0-0--0-0--0-0-0-0--0-|--0--0-0-0-0--0-0--0-0-0-0--0-|


                                                               
------------------------------|-------------------------------|
------------------------------|-------------------------------|
------------------------------|-------------------------------|
------------------------------|-------------------------------|
------------------------------|--2-2-2-2-2-2--2---------------|
--0--0-0-0-0--0-0--0-0-0-0--0-|-----------------0--0-0-0-0--0-|


                                                                
-------------------------------|-------------------------------|
-------------------------------|-------------------------------|
-------------------------------|-------------------------------|
-------------------------------|-------------------------------|
--2-2-2-2-2-2--2---------------|--2-2-2-2-2-2--2---------------|
-----------------0--0-0-0-0--0-|-----------------0--0-0-0-0--0-|


                                                                
-------------------------------|-------------------------------|
-------------------------------|-------------------------------|
-------------------------------|-------------------------------|
-------------------------------|-------------------------------|
--2-2-2-2-2-2--2---------------|--2-2-2-2-2-2--2---------------|
-----------------0--0-0-0-0--0-|-----------------0--0-0-0-0--0-|


                                                                
-------------------------------|-------------------------------|
-------------------------------|-------------------------------|
-------------------------------|-------------------------------|
-------------------------------|-------------------------------|
--2-2-2-2-2-2--2---------------|--2-2-2-2-2-2--2---------------|
-----------------0--0-0-0-0--0-|-----------------0--0-0-0-0--0-|


                                                       
-------------------------------|----------------------|
-------------------------------|----------------------|
-------------------------------|----------------------|
-------------------------------|----------------------|
--2-2-2-2-2-2--2---------------|----------------------|
-----------------0--0-0-0-0--0-|--0--0------0--0------|


                                                         
----------------------------|---------------------------|
----------------------------|---------------------------|
----------------------------|---------------------------|
----------------------------|---------------------------|
----------------------------|---------------------------|
--0--0--1-3-1--0--0--1-3-1--|--0--0--1-3-1--0--3--5--1--|


                                                         
----------------------------|---------------------------|
----------------------------|---------------------------|
----------------------------|---------------------------|
----------------------------|---------------------------|
----------------------------|---------------------------|
--0--0--1-3-1--0--0--1-3-1--|--0--0--1-3-1--0--3--5--1--|


                                                         
----------------------------|---------------------------|
----------------------------|---------------------------|
----------------------------|---------------------------|
----------------------------|---------------------------|
----------------------------|---------------------------|
--0--0--1-3-1--0--0--1-3-1--|--0--0--1-3-1--0--3--5--1--|


                                                        
----------------------------|--------------------------|
----------------------------|--------------------------|
----------------------------|--------------------------|
----------------------------|--------------------------|
----------------------------|--------------------------|
--0--0--1-3-1--0--0--1-3-1--|--0--0--0--0--0--0--0--0--|


                                                         
----------------------------|---------------------------|
----------------------------|---------------------------|
----------------------------|---------------------------|
----------------------------|---------------------------|
----------------------------|---------------------------|
--0--0--1-3-1--0--0--1-3-1--|--0--0--1-3-1--0--3--5--1--|


                                                         
----------------------------|---------------------------|
----------------------------|---------------------------|
----------------------------|---------------------------|
----------------------------|---------------------------|
----------------------------|---------------------------|
--0--0--1-3-1--0--0--1-3-1--|--0--0--1-3-1--0--3--5--1--|


                                                         
----------------------------|---------------------------|
----------------------------|---------------------------|
----------------------------|---------------------------|
----------------------------|---------------------------|
----------------------------|---------------------------|
--0--0--1-3-1--0--0--1-3-1--|--0--0--1-3-1--0--3--5--1--|


                                                        
----------------------------|--------------------------|
----------------------------|--------------------------|
----------------------------|--------------------------|
----------------------------|--------------------------|
----------------------------|--------------------------|
--0--0--1-3-1--0--0--1-3-1--|--0--0--0--0--0--0--0--0--|


                                                                               
-------------------------|--------------------------|-------------------------|
-------------------------|--------------------------|-------------------------|
-------------------------|--------------------------|-------------------------|
-------------------------|--------------------------|-------------------------|
-------------------------|--------------------------|-------------------------|
--0--3--6--5----0--3--5--|--0--3--6--5--0--0--0--0--|--0--3--6--5----0--3--5--|


                                                                              
------------------------|-------------------------|--------------------------|
------------------------|-------------------------|--------------------------|
------------------------|-------------------------|--------------------------|
------------------------|-------------------------|--------------------------|
------------------------|-------------------------|--------------------------|
--0--3--6--5----3---1---|--0--3--6--5----0--3--5--|--0--3--6--5--0--0--0--0--|


                                                                               
-------------------------|--------------|------------------|------------------|
-------------------------|--------------|------------------|------------------|
-------------------------|--------------|------------------|------------------|
-------------------------|--------------|------------------|------------------|
-------------------------|--------------|------------------|------------------|
--0--3--6--5----0--3--5--|--0--3--6--5--|------------------|------------------|


                                                                             
--------------------------|--------------------------|----------------------|
--------------------------|--------------------------|----------------------|
--------------------------|--------------------------|----------------------|
--0--0--0--0--0--0--0--0--|--0--0--0--0--0-----------|----------------------|
--------------------------|--------------------------|----------------------|
--------------------------|-----------------3--2--1--|--0--0------0--0------|


                                                                     
----------------------|----------------------|----------------------|
----------------------|----------------------|----------------------|
----------------------|----------------------|----------------------|
----------------------|----------------------|----------------------|
----------------------|----------------------|----------------------|
--0--0------0--0------|--0--0------0--0------|--0--0------0--0------|


                                                                     
----------------------|----------------------|----------------------|
----------------------|----------------------|----------------------|
----------------------|----------------------|----------------------|
----------------------|----------------------|----------------------|
----------------------|----------------------|----------------------|
--0--0------0--0------|--0--0------0--0------|--0--0------0--0------|


                                                                             
----------------------|--------------------------|--------------------------|
----------------------|--------------------------|--------------------------|
----------------------|--------------------------|--------------------------|
----------------------|--------------------------|--------------------------|
----------------------|--------------------------|--------------------------|
--0--0------0--0------|--0--6--0--5--0--0--3--5--|--0--6--0--5--0--0--3--5--|


                                                                             
--------------------------|--------------------------|----------------------|
--------------------------|--------------------------|----------------------|
--------------------------|--------------------------|----------------------|
--------------------------|--------------------------|----------------------|
--------------------------|--------------------------|----------------------|
--0--6--0--5--0--0--3--5--|--0--6--0--5--0--0--3--5--|--0--0------0--0------|


                                                                             
------------------|-------------------|------------------|------------------|
------------------|-------------------|------------------|------------------|
------------------|-------------------|------------------|------------------|
------------------|-------------------|------------------|------------------|
------------------|-------------------|------------------|------------------|
--3-3-3-3-3-3-3-3-|--0----------------|------------------|------------------|


                                                                            
------------------|------------------|------------------|------------------|
------------------|------------------|------------------|------------------|
------------------|------------------|------------------|------------------|
------------------|------------------|------------------|------------------|
------------------|------------------|------------------|------------------|
------------------|------------------|------------------|------------------|


                                                                   
------------------|-------------------|---------------------------|
------------------|-------------------|---------------------------|
------------------|----------------7--|--10/-12/-10--------9/-10/-|
------------------|-------------------|---------------------------|
------------------|-------------------|---------------------------|
------------------|-------------------|---------------------------|


                                                                      
-----------------------|----------------------|----------------------|
-----------------------|----------------------|----------------------|
--9--------9/-10/-9/---|--6----------2--6--7--|--9--7--6----------6--|
-----------------------|----------------------|----------------------|
-----------------------|----------------------|----------------------|
-----------------------|----------------------|----------------------|


                                                                          
---------------------|-------------------------|-------------------------|
---------------------|-------------------------|-------------------------|
--6/-7------------9--|--9/-10------9/-10/-9----|--9/-10----9----2--6--7--|
---------------------|-------------------------|-------------------------|
---------------------|-------------------------|-------------------------|
---------------------|-------------------------|-------------------------|


                                                                          
----------------------|-------------------------|------------------------|
----------------------|-------------------------|------------------------|
--9--7--6----------7--|--9--10--12/-14----------|------------12/-14/-12--|
----------------------|-------------------------|------------------------|
----------------------|-------------------------|------------------------|
----------------------|-------------------------|------------------------|


                                                                            
---------------------|-----------8--6--5--6--5--|--3--5--3-----------------|
---------------------|--------------------------|-----------3--5--6--3--5--|
------------2--6--7--|--9--7--6-----------------|--------------------------|
---------------------|--------------------------|--------------------------|
---------------------|--------------------------|--------------------------|
---------------------|--------------------------|--------------------------|


                                                                                
--------------------------|----------------------|---------------------1-3-5-9-|
--6--3--6--3--5--6--5/-3--|--2-------------------|---------------2-3-5---------|
--------------------------|-------------2--6--7--|--9--7--6----2---------------|
--------------------------|----------------------|-----------------------------|
--------------------------|----------------------|-----------------------------|
--------------------------|----------------------|-----------------------------|


                                                                    
--10----------------|----------------12-13-|--12-------------------|
--------------------|----------------------|-----------------------|
--------------------|----------------------|--------------2--6--7--|
--------------------|----------------------|-----------------------|
--------------------|----------------------|-----------------------|
--------------------|----------------------|-----------------------|


                                                                 
-------------------17--|--15-17-13--15--13-15-10--13--12-13-10--|
-----------------------|----------------------------------------|
--9--7--6--------------|----------------------------------------|
-----------------------|----------------------------------------|
-----------------------|----------------------------------------|
-----------------------|----------------------------------------|


                                                                                
--12--13--10--13--12--10--6--10--|--5-------------------|----------------------|
---------------------------------|----------------------|-------------------3--|
---------------------------------|-------------2--6--7--|--9--7--6-------------|
---------------------------------|----------------------|----------------------|
---------------------------------|----------------------|----------------------|
---------------------------------|----------------------|----------------------|


                                                                      
-----------------------|----------------------|----------------------|
--6/-8/-6--------5/-6/-|--5--------5/-6/-5----|--2-------------------|
-----------------------|----------------------|-------------2--6--7--|
-----------------------|----------------------|----------------------|
-----------------------|----------------------|----------------------|
-----------------------|----------------------|----------------------|


                                                                       
----------------------|---------------------|-------------------------|
----------------------|---------------------|-------------------------|
--9--7--6----------6--|--6/-7------------9--|--9/-10------9/-10--9----|
----------------------|---------------------|-------------------------|
----------------------|---------------------|-------------------------|
----------------------|---------------------|-------------------------|


                                                                            
-------------------------|----------------------|-------------------------||
-------------------------|----------------------|-------------------------||
--9/-10----9----2--6--7--|--9--7--6----------7--|--9--10--12--14----------||
-------------------------|----------------------|-------------------------||
-------------------------|----------------------|-------------------------||
-------------------------|----------------------|-------------------------||


Добавлено: 26.06.2013
Другие материалы по этой песне:
  • Аккорды и текст

Страница создана 26.06.2013
http://primanota.ru/overkill/im-allright-chords.htm
Привет, Гость.
Предлагаем пройти революционный курс по гитаре.
Подарок от PrimaNota.Ru, забирай!