PrimaNota.ru - самый крупный в мире бесплатный архив песенных текстов, аккордов, табулатур и нот


Overkill - Ironbound - текст песни, таба, видео

Регистрация Запомнить меня
Войти через:  Facebook Google Twitter Vk Yandex Mail.ru

Overkill - Ironbound - текст песни, таба, видео

Печатать
Просмотров: 233
Уроки эстрадного вокала в Санкт-Петербурге
Авторы музыки: D.D. Verni
Авторы текста: Bobby “Blitz” Ellsworth
Overkill - Ironbound

Album: "Ironbound" (2010)
Tabbed by: TerrorMetal	
Email: gdreater@hotmail.com
Notes: The notes for the clean part are almost right, but the picking pattern can be different.

Tuning: E

Riff 1
Guitar 1
e|-------------------------------------|
B|-------------------------------------|
G|-------------------------------------|
D|-----------2h5p4p0-----------2h5p4p0-|
A|-------------------------------------|
E|-000-000-0---------000-000-0---------|
   *** *** *         *** *** *

e|------------------------------------|
B|------------------------------------|
G|------------------------------------|
D|-----------2h5p4p0-----------5---5--|
A|-----------------------------5---5--|
E|-000-000-0---------000-000-0-3---3--|
   *** *** *         *** *** *

e|-------------------------------------|
B|-------------------------------------|
G|-------------------------------------|
D|-----------2h5p4p0-----------1h5p4p0-|
A|-------------------------------------|
E|-000-000-0---------000-000-0---------|
   *** *** *         *** *** *

e|----------------------------------|
B|----------------------------------|
G|----------------------------------|
D|-----------2h5p4p0-------------5--|
A|-------------------------------5--|
E|-000-000-0---------000-000-000-3--|
   *** *** *          *** *** ***

Guitar 2
e|-----------------------------------|
B|-----------------------------------|
G|-----------------------------------|
D|-----------------------------------|
A|-----------------------------------|
E|-000-000----------000-000----------|
   *** ***          *** *** 

e|-----------------------------------|
B|-----------------------------------|
G|-----------------------------------|
D|----------------------------5------|
A|----------------------------5------|
E|-000-000----------000-000-0-3------|
   *** ***          *** *** *

e|-----------------------------------|
B|-----------------------------------|
G|-----------------------------------|
D|-----------------------------------|
A|-----------------------------------|
E|-000-000----------000-000----------|
   *** ***          *** *** 

e|-----------------------------------|
B|-----------------------------------|
G|-----------------------------------|
D|------------------------------5----|
A|------------------------------5----|
E|-000-000----------000-000-000-3----|
   *** ***          *** *** ***


Riff 2
e|-------------------------------------|
B|-------------------------------------|
G|-------------------------------------|
D|-----------2h5p4p0-----------2h5p4p0-|
A|-------------------------------------|
E|-000-000-0---------000-000-0---------|
   *** *** *         *** *** *

e|------------------------------------|
B|------------------------------------|
G|------------------------------------|
D|-----------2h5p4p0-----------5---5--|
A|-----------------------------5---5--|
E|-000-000-0---------000-000-0-3---3--|
   *** *** *         *** *** *


Riff 3
Guitar 1
e|-------------------------------------|
B|-------------------------------------|
G|-------------------------------------|
D|-----------2h5p4p0-----------2h5p4p0-|
A|-------------------------------------|
E|-000-000-0---------000-000-0---------|
   *** *** *         *** *** *

e|------------------------------------|
B|------------------------------------|
G|------------------------------------|
D|-----------2h5p4p0-----------5---5--|
A|-----------------------------5---5--|
E|-000-000-0---------000-000-0-3---3--|
   *** *** *         *** *** *

Guitar 2
e|-----------------------------------------|
B|-----------------------------------------|
G|-----------------------------------------|
D|-----------9h12p11p0-----------9h12p11p0-|
A|-----------------------------------------|
E|-000-000-0-----------000-000-0-----------|
   *** *** *           *** *** *

e|-------------------------------------|
B|-------------------------------------|
G|-------------------------------------|
D|-----------9h12p11p0-----------5---5-|
A|-------------------------------5---5-|
E|-000-000-0-----------000-000-0-3---3-|
   *** *** *           *** *** *


Riff 4
e|---------------------------------|
B|---------------------------------|
G|---------------------------------|
D|-2------------------------7------|
A|-2---------------5--4--5--7------|
E|-0---------------3--2--3--5------|
                   *  *  *  
 
e|---------------------------------|
B|---------------------------------|
G|--------------------------7------|
D|-5---------------5--4--5--7------|
A|-5---------------3--2--3--5------|
E|-3-------------------------------|
                   *  *  *

Riff 5
e|--------------------------------------|
B|--------------------------------------|
G|--------------------------------------|
D|-----------2h5p4p0-----------2h5p4p0--|
A|--------------------------------------|
E|-0-0-0-0-0---------0-0-0-0-0----------|
   * * * * *         * * * * *

e|-----------------------------------|
B|-----------------------------------|
G|-----------------------------------|
D|-----------2h5p4p0-----------------|
A|-----------------------8---7---5/7-|
E|-0-0-0-0-0---------0-0-6-0-5-0-3/5-|
   * * * * *         * *   *   * 

e|-------------------------------------|
B|-------------------------------------|
G|-------------------------------------|
D|-----------2h5p4p0-----------2h5p4p0-|
A|-------------------------------------|
E|-0-0-0-0-0---------0-0-0-0-0---------|
   * * * * *         * * * * *

e|---------------------------------|
B|---------------------------------|
G|---------------------------------|
D|---------------7-----------------|
A|-----------7/8-5-----8---7---5/7-|
E|-5-5-5-5-5-5/6-----0-6-0-5-0-3/5-|
   * * * * *         *   *   *


Riff 6
e|-------------------------------------|
B|-------------------------------------|
G|-------------------------------------|
D|-----------2h5p4p0-----------2h5p4p0-|
A|-------------------------------------|
E|-000-000-0---------000-000-0---------|
   *** *** *         *** *** *

e|-----------------------------------|
B|-----------------------------------|
G|-----------------------------------|
D|-----------2h5p4p0-----------------|
A|-------------------7-7-7-7-7-7-7-7-|
E|-000-000-0---------5-5-5-5-5-5-5-5-|
   *** *** *         * * * * * * * *    

Riff 7
e|----------------------------------|
B|----------------------------------|
G|----------------------------------|
D|----------------------------------|
A|-4--------------------------------|
E|-2-222222222222222222222222222222-|
     ******************************

e|----------------------------------|
B|----------------------------------|
G|----------------------------------|
D|-2---------------4----------------|
A|-0-000000000000002-22222222222222-|
E|----------------------------------|
     **************  **************

Riff 8
e|----------------------------------|
B|----------------------------------|
G|----------------------------------|
D|-4--------------------------------|
A|-2-222222222222222222222222222222-|
E|----------------------------------|
     ******************************

e|----------------------------------|
B|----------------------------------|
G|----------------------------------|
D|----------------------------------|
A|-5---------------4----------------|
E|-3-333333333333332-22222222222222-|
     **************  **************

Riff 9
e|---------------------|
B|---------------------|
G|---------------------|
D|---------------------|
A|---------------------|
E|-0-00000-00000-00000-|
   * ***** ***** *****

Riff 10
Guitar 1
e|-------------------------------------|
B|-------------------------------------|
G|-------------------------------------|
D|-----------2h5p4p0-------------------|
A|-----------------------------2h5p4p0-|
E|-000-000-0---------000-000-0---------|
   *** *** *         *** *** *

e|------------------------------------|
B|------------------------------------|
G|------------------------------------|
D|-----------2h5p4p0-----------5------|
A|-----------------------------5------|
E|-000-000-0---------000-000-0-3------|
   *** *** *         *** *** *

Guitar 2
e|-----------------------------------|
B|-----------------------------------|
G|-----------------------------------|
D|-----------------------------------|
A|-----------------------------------|
E|-----------------------------------|

e|-----------------------------------|
B|-----------------------------------|
G|-----------------------------------|
D|----------------------------5------|
A|----------------------------5------|
E|----------------------------3------|
   

Riff 11
e|---------------------------|
B|---------------------------|
G|---------------------------|
D|---------------------------|
A|---------------------3-3-3-|
E|-0-00000-00000-00000-1-1-1-|
   * ***** ***** ***** * * *

Riff 12
e|-------------------------------|
B|-------------------------------|
G|-------------------------------|
D|-9\-----9\-----9\-----9\-------|
A|-7\-----7\-----7\-----7\-3-3-3-|
E|----0000---0000---0000---1-1-1-|
      ****   ****   ****   * * *

Riff 13
Guitar 1
e|-------------------------|
B|-------------------------|
G|-------------------------|
D|-4\3---4\3---4\3---------|
A|-4\3---4\3---4\3-2-2-2-2-|
E|-----0-----0-----0-0-0-0-|
       *     *     * * * *
 
e|-------------------------|
B|-------------------------|
G|-------------------------|
D|-4\3---4\3---4\3---------|
A|-4\3---4\3---4\3-3-3-3-3-|
E|-----0-----0-----1-1-1-1-|
       *     *     * * * *  

Guitar 2
e|---------------------------|
B|---------------------------|
G|------------------/9-9-9-9-|
D|-4\3---4\3---4\3-----------|
A|-4\3---4\3---4\3--/7-7-7-7-|
E|-----0-----0---------------|
       *     *     
 
e|-------------------------------|
B|-------------------------------|
G|------------------/10-10-10-10-|
D|-4\3---4\3---4\3---------------|
A|-4\3---4\3---4\3--/8--8--8--8--|
E|-----0-----0-------------------|
       *     *    

Riff 14
Guitar 1
e|------------------------------|
B|------------------------------|
G|------------------------------|
D|-5----------------------------|
A|-5----------------------------|
E|-3----------------------------|

Guitar 2
e|------------------------------|
B|------------------------------|
G|-12---------------------------|
D|-12---------------------------|
A|-10---------------------------|
E|------------------------------|

Riff 15
Guitar 1 (Clean)
e|-3-----3-----3-----3-----3-----3-|
B|---5-----5-----5-----5-----5-----|
G|-----4-----4-----4-----4-----4---|
D|---------------------------------|
A|---------------------------------|
E|---------------------------------|

e|-2-----2-----2---5-----5-----5---|
B|---5-----5-----5---5-----5-----5-|
G|-----4-----4---------4-----4-----|
D|---------------------------------|
A|---------------------------------|
E|---------------------------------|

Guitar 2 (Clean)
e|-3-------------------------------|
B|-5-------------------------------|
G|-4-------------------------------|
D|---------------------------------|
A|---------------------------------|
E|---------------------------------|

e|-2---------------5---------------|
B|-5---------------5---------------|
G|-4---------------4---------------|
D|---------------------------------|
A|---------------------------------|
E|---------------------------------|

Riff 16
Guitar 1 (Clean)
e|-----0-----0-----0-----0-----0---|
B|---0-----0-----0-----0-----0-----|
G|-5-----5-----5-----5-----5-----5-|
D|---------------------------------|
A|---------------------------------|
E|---------------------------------|

e|-----0-----0-----0-----0-----0---|
B|---0-----0-----0-----0-----0-----|
G|-4-----4-----4-----4-----4-----4-|
D|---------------------------------|
A|---------------------------------|
E|---------------------------------|

e|-----0-----0-----0-----0-----0---|
B|---0-----0-----0-----0-----0-----|
G|-5-----5-----5-----5-----5-----5-|
D|---------------------------------|
A|---------------------------------|
E|---------------------------------|

e|-----0-----0---------0---------0---|
B|---0-----0-----0---0---0-----0---0-|
G|-4-----4-----4---5-------5/7-------|
D|-----------------------------------|
A|-----------------------------------|
E|-----------------------------------|

Guitar 2 (Clean)
e|-----------------------------------|
B|-----------------------------------|
G|-5---------------------------------|
D|-5---------------------------------|
A|-3---------------------------------|
E|-----------------------------------|

e|-----------------------------------|
B|-----------------------------------|
G|-4---------------------------------|
D|-4---------------------------------|
A|-2---------------------------------|
E|-----------------------------------|

e|-----------------------------------|
B|-----------------------------------|
G|-5---------------------------------|
D|-5---------------------------------|
A|-3---------------------------------|
E|-----------------------------------|

e|-----------------------------------|
B|-----------------------------------|
G|-4---------------5-------7---------|
D|-4---------------5-------7---------|
A|-2---------------3-------5---------|
E|-----------------------------------|

Riff 17
e|----------------------|
B|----------------------|
G|----------------------|
D|----------------------|
A|-2---2---2--2-3-3-3---|
E|-0---0---0--0-1-1-1---|
   *   *   *  * * * *

Riff 18
e|------------------|
B|------------------|
G|------------------|
D|------------------|
A|------------------|
E|-0000000000000000-|
   ****************

Riff 19
e|--------------------------|
B|--------------------------|
G|---------5-------4--------|
D|-2-------5-------4--------|
A|-2-------3-------2--------|
E|-0------------------------|


e|--------------------------|
B|--------------------------|
G|---------5-------2--------|
D|-2-------5-------2--------|
A|-2-------3-------0--------|
E|-0------------------------|

e|---------------------------------|
B|---------------------------------|
G|---------------------------------|
D|-4---4---4---4---4---4-2-4-2-----|
A|-2-222-222-222-222-222-0-2-0-5-4-|
E|-----------------------------3-2-|
     **  **  **  **  *** * * * * * 

Riff 20
e|----------------------------------|
B|----------------------------------|
G|----------------------------------|
D|-4-------5-------7-------8--------|
A|-2-2222223-3333335-5555556-666666-|
E|----------------------------------|
     ******  ******  ******  ******

Riff 21
e|------|
B|------|
G|------|
D|-9\---|
A|-7\---|
E|-0\---|


Song Structure

Riff 1
Riff 2  (3 Times)
Riff 3 
Riff 4 
Riff 5  (2 Times)
Riff 6
Riff 4
Riff 7
Riff 4
Riff 8
Riff 9
Riff 10
Riff 5  (2 Times)
Riff 4
Riff 7
Riff 4
Riff 6
Riff 11 (6 Times)
Riff 12 (2 Times)
Riff 11 (4 Times)
Riff 13 (2 Times)
Riff 11 (4 Times)
Riff 14
Rfif 15 (4 Times)
Riff 16
Riff 15 (2 Times)
Riff 16
Riff 17 (19 Times)
Riff 18
Riff 19 (2 Times)
Riff 20
Riff 11 (4 Times)
Riff 10
Riff 5  (2 Times)
Riff 4
Riff 7
Riff 4
Riff 8
Riff 2  (2 Times)
Riff 21
Добавлено: 26.06.2013
Вам также может быть интересно:
Другие материалы по этой песне:
  • Аккорды и текст

Страница создана 26.06.2013
http://primanota.ru/overkill/ironbound-chords.htm
Привет, Гость.
Предлагаем пройти революционный курс по гитаре.
Подарок от PrimaNota.Ru, забирай!