PrimaNota.ru - самый крупный в мире бесплатный архив песенных текстов, аккордов, табулатур и нот


Overkill - Bring Me The Night - текст песни, таба, видео

Регистрация Запомнить меня
Войти через:  Facebook Google Twitter Vk Yandex Mail.ru

Overkill - Bring Me The Night - текст песни, таба, видео

Печатать
Просмотров: 233
Josue Issac
iss_12acx@hotmail.com


                                     S S S S S S S S S S S S S S S S  
E||-------|-------|-------|-------|----------------------------------|
B||-------|-------|-------|-------|----------------------------------|
G||-------|-------|-------|-------|----------------------------------|
D||-------|-------|-------|-------|----------------------------------|
A||-------|-------|-------|-------|--------3-L-------------3-L-------|
E||-------|-------|-------|-------|--5-5-3-----5-5-L-5-5-3-----5-5-L-|


  S S S S S S S S E.  E.  E     S S S S S S S S S S S S S S S S  
-----------------------------|----------------------------------|
-----------------------------|----------------------------------|
-----------------------------|----------------------------------|
-----------------------------|----------------------------------|
--------3-L------------------|--------3-L-------------3-L-------|
--5-5-3-----5-5-L-3---4---5--|--5-5-3-----5-5-L-5-5-3-----5-5-L-|


  S S S S S S S S E.  E.  E     S S S S S S S S S S S S S S S S  
-----------------------------|----------------------------------|
-----------------------------|----------------------------------|
-----------------------------|----------------------------------|
-----------------------------|----------------------------------|
--------3-L------------------|--------3-L-------------3-L-------|
--5-5-3-----5-5-L-3---4---5--|--5-5-3-----5-5-L-5-5-3-----5-5-L-|


  S S S S S S S S E.  E.  E     S S S S S S S S S S S S S S S S  
-----------------------------|----------------------------------|
-----------------------------|----------------------------------|
-----------------------------|----------------------------------|
-----------------------------|----------------------------------|
--------3-L------------------|--------3-L-------------3-L-------|
--5-5-3-----5-5-L-3---4---5--|--5-5-3-----5-5-L-5-5-3-----5-5-L-|


  S S S S S S S S E.  E.  E   
-----------------------------|
-----------------------------|
-----------------------------|
-----------------------------|
--------3-L------------------|
--5-5-3-----5-5-L-3---4---5--|


  PM PM PM PM PM PM PM PM PM PM PM PM PM PM PM PM  
  S  S  S  S  S  S  S  S  S  S  S  S  S  S  S  S   
--------------------------------------------------|
--------------------------------------------------|
--------------------------------------------------|
--------------------------------------------------|
--------------------------------------------------|
--0--0--0--0--0--0--0--0--0--0--0--0--0--0--0--0--|


  PM PM PM PM PM PM PM PM              
  S  S  S  S  S  S  S  S  E.  E.   E   
--------------------------------------|
--------------------------------------|
--------------------------------------|
--------------------------9---7---10--|
--------------------------7---5----8--|
--0--0--0--0--0--0--0--0--------------|


  PM PM PM PM PM PM PM PM PM PM PM PM PM PM PM PM  
  S  S  S  S  S  S  S  S  S  S  S  S  S  S  S  S   
--------------------------------------------------|
--------------------------------------------------|
--------------------------------------------------|
--------------------------------------------------|
--------------------------------------------------|
--0--0--0--0--0--0--0--0--0--0--0--0--0--0--0--0--|


  PM PM PM PM PM PM PM PM                                                 
  S  S  S  S  S  S  S  S  E.  E.   E     S S S S S S S S S S S S S S S S  
--------------------------------------|----------------------------------|
--------------------------------------|----------------------------------|
--------------------------------------|----------------------------------|
--------------------------9---7---10--|----------------------------------|
--------------------------7---5----8--|--------3-L-------------3-L-------|
--0--0--0--0--0--0--0--0--------------|--5-5-3-----5-5-L-5-5-3-----5-5-L-|


  S S S S S S S S E.  E.  E     S S S S S S S S S S S S S S S S  
-----------------------------|----------------------------------|
-----------------------------|----------------------------------|
-----------------------------|----------------------------------|
-----------------------------|----------------------------------|
--------3-L------------------|--------3-L-------------3-L-------|
--5-5-3-----5-5-L-3---4---5--|--5-5-3-----5-5-L-5-5-3-----5-5-L-|


  S S S S S S S S E.  E.  E     S S S S S S S S S S S S S S S S  
-----------------------------|----------------------------------|
-----------------------------|----------------------------------|
-----------------------------|----------------------------------|
-----------------------------|----------------------------------|
--------3-L------------------|----------------------------------|
--5-5-3-----5-5-L-3---4---5--|--0-0-0-0-0-0-0-0-0-0-0-0-0-0-0-0-|


  S S S S S S S S E.  E.   E     S S S S S S S S S S S S S S S S  
------------------------------|----------------------------------|
------------------------------|----------------------------------|
------------------------------|----------------------------------|
------------------9---7---10--|----------------------------------|
------------------7---5----8--|----------------------------------|
--0-0-0-0-0-0-0-0-------------|--0-0-0-0-0-0-0-0-0-0-0-0-0-0-0-0-|


  S S S S S S S S E.  E.   E     S S S S S S S S S S S S S S S S  
------------------------------|----------------------------------|
------------------------------|----------------------------------|
------------------------------|----------------------------------|
------------------9---7---10--|----------------------------------|
------------------7---5----8--|--------3-L-------------3-L-------|
--0-0-0-0-0-0-0-0-------------|--5-5-3-----5-5-L-5-5-3-----5-5-L-|


  S S S S S S S S E.  E.  E     S S S S S S S S S S S S S S S S  
-----------------------------|----------------------------------|
-----------------------------|----------------------------------|
-----------------------------|----------------------------------|
-----------------------------|----------------------------------|
--------3-L------------------|--------3-L-------------3-L-------|
--5-5-3-----5-5-L-3---4---5--|--5-5-3-----5-5-L-5-5-3-----5-5-L-|


  S S S S S S S S E.  E.  E     E  E  E  E  E  E   E  E   
-----------------------------|---------------------------|
-----------------------------|---------------------------|
-----------------------------|---------------------------|
-----------------------------|---------------------------|
--------3-L------------------|-----7--L--L--L--L---L--L--|
--5-5-3-----5-5-L-3---4---5--|--3--5--L--L--L--L---L--L--|


   E  E.   E.  E.   E.  E     E  E  E  E  E  E   E  E   
---------------------------|---------------------------|
---------------------------|---------------------------|
---------------------------|---------------------------|
---------------8-----------|---------------------------|
--10--9---10---6---10---9--|-----7--L--L--L--L---L--L--|
---8--7----8--------8---7--|--3--5--L--L--L--L---L--L--|


   E  E.  E.  E.   E.  E     S S S S S S S S S S S S S S S S  
--------------------------|----------------------------------|
--------------------------|----------------------------------|
--------------------------|----------------------------------|
--------------------------|----------------------------------|
--10--9---5---7----L---L--|--5-------5-------5-------5-------|
---8--7---3---5----L---L--|--3-3-3-3-3-3-3-3-3-3-3-3-3-3-3-3-|


  S S S S S S S S S S S S S S S S    S S S S S S S S S S S S S S S S  
----------------------------------|----------------------------------|
----------------------------------|----------------------------------|
----------------------------------|----------------------------------|
----------------------------------|----------------------------------|
--5-------5-------5-------5-------|--7-------7-------7-------7-------|
--3-3-3-3-3-3-3-3-3-3-3-3-3-3-3-3-|--5-5-5-5-5-5-5-5-5-5-5-5-5-5-5-5-|


  S S S S S S S S S S S S S S S S    E  E  E  E  E  E   E  E   
----------------------------------|---------------------------|
----------------------------------|---------------------------|
----------------------------------|---------------------------|
----------------------------------|---------------------------|
--7-------7-------7-------7-------|-----7--L--L--L--L---L--L--|
--5-5-5-5-5-5-5-5-5-5-5-5-5-5-5-5-|--3--5--L--L--L--L---L--L--|


   E  E.   E.  E.   E.  E     E  E  E  E  E  E   E  E   
---------------------------|---------------------------|
---------------------------|---------------------------|
---------------------------|---------------------------|
---------------8-----------|---------------------------|
--10--9---10---6---10---9--|-----7--L--L--L--L---L--L--|
---8--7----8--------8---7--|--3--5--L--L--L--L---L--L--|


   E  E.  E.  E.   E.  E     S S S S S S S S S S S S S S S S  
--------------------------|----------------------------------|
--------------------------|----------------------------------|
--------------------------|----------------------------------|
--------------------------|----------------------------------|
--10--9---5---7----L---L--|--5-------5-------5-------5-------|
---8--7---3---5----L---L--|--3-3-3-3-3-3-3-3-3-3-3-3-3-3-3-3-|


  S S S S S S S S S S S S S S S S    S S S S S S S S S S S S S S S S  
----------------------------------|----------------------------------|
----------------------------------|----------------------------------|
----------------------------------|----------------------------------|
----------------------------------|----------------------------------|
--5-------5-------5-------5-------|--7-------7-------7-------7-------|
--3-3-3-3-3-3-3-3-3-3-3-3-3-3-3-3-|--5-5-5-5-5-5-5-5-5-5-5-5-5-5-5-5-|


  S S S S S S S S S S S S S S S S   
----------------------------------||
----------------------------------||
----------------------------------||
----------------------------------||
--7-------7-------7-------7-------||
--5-5-5-5-5-5-5-5-5-5-5-5-5-5-5-5-||
Добавлено: 31.07.2013
Другие материалы по этой песне:
  • Аккорды и текст

Страница создана 31.07.2013
http://primanota.ru/overkill/bring-me-the-night-chords.htm
Привет, Гость.
Предлагаем пройти революционный курс по гитаре.
Подарок от PrimaNota.Ru, забирай!