PrimaNota.ru - самый крупный в мире бесплатный архив песенных текстов, аккордов, табулатур и нот


Norma Jean - Human Face, Divine - текст песни, таба, бас-таба, видео

Регистрация Запомнить меня
Войти через:  Facebook Google Twitter Vk Yandex Mail.ru

Norma Jean - Human Face, Divine - текст песни, таба, бас-таба, видео

Печатать
Просмотров: 76
Gtr I (C# G# C# F# A# D#) - 'Lead Guitar'
Gtr II (C# G# C# F# A# D#) - 'Rhythm Guitar'
Gtr III (C# G# C# F# A# D#) - 'Pickscratch'
Gtr IV (C# G# C# F# A# D#) - 'Piano Thing'

    It's All Done Wrong Q=260
   4/4
    Gtr I
      TP
      H.      Q    +H     E E E E   E E E E E E E E  4x
||---------------|----------------|------------------||
||o--------------|----------------|-----------------o||
||--/15----------|----------------|------------------||
||----0-------0--|-(0)------------|------------------||
||o-/13-------0--|-(0)------------|-----------------o||
||------------0--|-(0)----2p0-2p0-|-2p0-3p0-2p0-1p0--||
|
|   Gtr II
|     TP
|     H.      Q    +H     E E E E   E E E E E E E E  4x
||---------------|----------------|------------------||
||o--------------|----------------|-----------------o||
||---/8----------|----------------|------------------||
||----0-------0--|-(0)------------|------------------||
||o--/6-------0--|-(0)------------|-----------------o||
||------------0--|-(0)----2p0-2p0-|-2p0-3p0-2p0-1p0--||


     TP
     H.      Q    +H     E E E E   E E E E E E E E  4x
||--------------|----------------|------------------||
||o-------------|----------------|-----------------o||
||--/8----------|----------------|------------------||
||---0-------0--|-(0)------------|------------------||
||o-/6-------0--|-(0)------------|-----------------o||
||-----------0--|-(0)----2p0-2p0-|-2p0-3p0-2p0-1p0--||
|
|    TP
|    H.      Q    +H     E E E E   E E E E E E E E  4x
||--------------|----------------|------------------||
||o-------------|----------------|-----------------o||
||--/8----------|----------------|------------------||
||---0-------0--|-(0)------------|------------------||
||o-/6-------0--|-(0)------------|-----------------o||
||-----------0--|-(0)----2p0-2p0-|-2p0-3p0-2p0-1p0--||


  E E E E E E E E   E E E E E E E E   E E E E E E E E   E E E E E E E E
|-----------------|-----------------|-----------------|-----------------||
|-----------------|-----------------|-----------------|-----------------||
|-8-8-8-8-8-8-8-8-|-8-8-8-8-8-8-8-8-|-8-8-8-8-8-8-8-8-|-8-8-8-8-8-8-8-8-||
|-0-0-0-0-0-0-0-0-|-0-0-0-0-0-0-0-0-|-0-0-0-0-0-0-0-0-|-0-0-0-0-0-0-0-0-||
|-6-6-6-6-6-6-6-6-|-6-6-6-6-6-6-6-6-|-6-6-6-6-6-6-6-6-|-6-6-6-6-6-6-6-6-||
|-----------------|-----------------|-----------------|-----------------||
|
| E E E E E E E E   E E E E E E E E   E E E E E E E E   E E E E E E E E
|-----------------|-----------------|-----------------|-----------------||
|-----------------|-----------------|-----------------|-----------------||
|-----------------|-----------------|-----------------|-----------------||
|-----------------|-----------------|-----------------|-----------------||
|-6p0-6p0-6p0-6p0-|-6p0-6p0-6p0-6p0-|-6p0-6p0-6p0-6p0-|-6p0-6p0-6p0-6p0-||
|-----------------|-----------------|-----------------|-----------------||


  E E Q    E  E  E  E    E  E  E  E  E  E  E  E
|---------------------|-------------------------|
|---------------------|-------------------------|
|-8-8------8--8--8--8-|--8--8--8--8--8--8--8--8-|
|-0-0------0--0--0--0-|--0--0--0--0--0--0--0--0-|
|-6-6------6--6--6--6-|--6--6--6--6--6--6--6--6-|
|---------------------|-------------------------|
|
| E E Q    E  E  E  E    E  E  E  E  E  E  E  E
|---------------------|-------------------------|
|---------------------|-------------------------|
|--------/15-15-15-15-|-15-15-15-15-15-15-15-15-|
|----------0--0--0--0-|--0--0--0--0--0--0--0--0-|
|-6p0----/13-13-13-13-|-13-13-13-13-13-13-13-13-|
|---------------------|-------------------------|


    TP
    H.      Q    +H     E E E E   E E E E E E E E
|--------------|----------------|-----------------||
|--------------|----------------|-----------------||
|-/15----------|----------------|-----------------||
|---0-------0--|-(0)------------|-----------------||
|-/13-------0--|-(0)------------|-----------------||
|-----------0--|-(0)----2p0-2p0-|-2p0-3p0-2p0-1p0-||
|
|   TP
|   H.      Q    +H     E E E E   E E E E E E E E
|--------------|----------------|-----------------||
|--------------|----------------|-----------------||
|--15----------|----------------|-----------------||
|---0-------0--|-(0)------------|-----------------||
|--13-------0--|-(0)------------|-----------------||
|-----------0--|-(0)----2p0-2p0-|-2p0-3p0-2p0-1p0-||


     TP
     H.      Q    +H     E E E E   E E E E E E E E  3x
||--------------|----------------|------------------||
||o-------------|----------------|-----------------o||
||--/8----------|----------------|------------------||
||---0-------0--|-(0)------------|------------------||
||o-/6-------0--|-(0)------------|-----------------o||
||-----------0--|-(0)----2p0-2p0-|-2p0-3p0-2p0-1p0--||
|
|    TP
|    H.      Q    +H     E E E E   E E E E E E E E  3x
||--------------|----------------|------------------||
||o-------------|----------------|-----------------o||
||--/8----------|----------------|------------------||
||---0-------0--|-(0)------------|------------------||
||o-/6-------0--|-(0)------------|-----------------o||
||-----------0--|-(0)----2p0-2p0-|-2p0-3p0-2p0-1p0--||


  E E E E E E E E   E E E E E E E E   E E E E E E E E   E E E E E E E E
|-----------------|-----------------|-----------------|-----------------||
|-----------------|-----------------|-----------------|-----------------||
|-8-8-8-8-8-8-8-8-|-8-8-8-8-8-8-8-8-|-8-8-8-8-8-8-8-8-|-8-8-8-8-8-8-8-8-||
|-0-0-0-0-0-0-0-0-|-0-0-0-0-0-0-0-0-|-0-0-0-0-0-0-0-0-|-0-0-0-0-0-0-0-0-||
|-6-6-6-6-6-6-6-6-|-6-6-6-6-6-6-6-6-|-6-6-6-6-6-6-6-6-|-6-6-6-6-6-6-6-6-||
|-----------------|-----------------|-----------------|-----------------||
|
| E E E E E E E E   E E E E E E E E   E E E E E E E E   E E E E E E E E
|-----------------|-----------------|-----------------|-----------------||
|-----------------|-----------------|-----------------|-----------------||
|-8-8-8-8-8-8-8-8-|-8-8-8-8-8-8-8-8-|-8-8-8-8-8-8-8-8-|-8-8-8-8-8-8-8-8-||
|-0-0-0-0-0-0-0-0-|-0-0-0-0-0-0-0-0-|-0-0-0-0-0-0-0-0-|-0-0-0-0-0-0-0-0-||
|-6-6-6-6-6-6-6-6-|-6-6-6-6-6-6-6-6-|-6-6-6-6-6-6-6-6-|-6-6-6-6-6-6-6-6-||
|-----------------|-----------------|-----------------|-----------------||


  E E Q  E E E E   E E E E E E E E     E E E E E E E E   E E E E E E E E
|----------------|-----------------||------------------|-----------------||
|----------------|-----------------||o-----------------|-----------------||
|-8-8----8-8-8-8-|-8-8-8-8-8-8-8-8-||------------------|-----------------||
|-0-0----0-0-0-0-|-0-0-0-0-0-0-0-0-||------------------|-----------------||
|-6-6----6-6-6-6-|-6-6-6-6-6-6-6-6-||o-----------------|-----------------||
|----------------|-----------------||--2p0-2p0-2p0-3p0-|-2p0-1p0-2p0-2p0-||
|
| E E Q  E E E E   E E E E E E E E     E E E E E E E E   E E E E E E E E
|----------------|-----------------||------------------|-----------------||
|----------------|-----------------||o-----------------|-----------------||
|-8-8----8-8-8-8-|-8-8-8-8-8-8-8-8-||------------------|-----------------||
|-0-0----0-0-0-0-|-0-0-0-0-0-0-0-0-||------------------|-----------------||
|-6-6----6-6-6-6-|-6-6-6-6-6-6-6-6-||o-----------------|-----------------||
|----------------|-----------------||--2p0-2p0-2p0-3p0-|-2p0-1p0-2p0-2p0-||


  E E E E E E E E     Wx24
|------------------||---------||
|-----------------o||---------||
|------------------||---------||
|------------------||---------||
|-----------------o||---------||
|-2p0-3p0-2p0-1p0--||---------||
|
| E E E E E E E E     Wx24
|------------------||---------||
|-----------------o||---------||
|------------------||---------||
|------------------||---------||
|-----------------o||---------||
|-2p0-3p0-2p0-1p0--||---------||


  CHORUS Q=140
  W           Q   H.        W           Q   H.
|----------|--------------|----------|-----------------||
|----------|--------------|----------|-----------------||
|----------|-14--15-------|----------|-14--15----------||
|-0--------|--------------|-0--------|-----------------||
|-0--------|-12--13-------|-0--------|-12--13----------||
|-0--------|--------------|-0--------|-----------------||
|
|                                                 ~~~
| W           Q   H.        W           Q   Q     H
|----------|--------------|----------|-----------------||
|----------|--------------|----------|-----------------||
|----------|--7---8-------|----------|--7---8----------||
|-0--------|--------------|-0--------|-----------------||
|-0--------|--5---6-------|-0--------|--5---6---/15----||
|-0--------|--------------|-0--------|-----------------||


  W           Q   H.        H    Q  Q    Q  Q  Q  Q
|----------|--------------|------------|-------------||
|----------|--------------|------------|-------------||
|----------|-14--15-------|------------|-------------||
|-0--------|--------------|-3----3--3--|-3--2--2--2--||
|-0--------|-12--13-------|-3----3--3--|-3--2--2--2--||
|-0--------|--------------|-3----3--3--|-3--2--2--2--||
|
| W           Q   H.        H    Q  Q    Q  Q  Q  Q
|----------|--------------|------------|-------------||
|----------|--------------|------------|-------------||
|----------|--7---8-------|------------|-------------||
|-0--------|--------------|-3----3--3--|-3--2--2--2--||
|-0--------|--5---6-------|-3----3--3--|-3--2--2--2--||
|-0--------|--------------|-3----3--3--|-3--2--2--2--||


  W          Q  Q    H       W          Q  H.
|----------|---------------|----------|---------------||
|----------|---------------|----------|---------------||
|----------|-7--8----------|----------|-7--8----------||
|-0--------|-------/15\----|-0--------|---------------||
|-0--------|-5--6--/15\----|-0--------|-5--6----------||
|-0--------|-------/15\----|-0--------|---------------||
|
|                                                ~~~
| W          Q  Q    H       W          Q  Q     H
|----------|---------------|----------|---------------||
|----------|---------------|----------|---------------||
|----------|-7--8----------|----------|-7--8----------||
|-0--------|-------/15\----|-0--------|---------------||
|-0--------|-5--6--/15\----|-0--------|-5--6---/15----||
|-0--------|-------/15\----|-0--------|---------------||


  W          Q  H.        W           Q   H.
|----------|------------|----------|------------||
|----------|------------|----------|------------||
|----------|-7--8-------|----------|-19--20-----||
|-0--------|------------|-0--------|------------||
|-0--------|-5--6-------|-0--------|-17--18-----||
|-0--------|------------|-0--------|------------||
|
| W          Q  H.        W           Q   H.
|----------|------------|----------|------------||
|----------|------------|----------|------------||
|----------|-7--8-------|----------|--7---8-----||
|-0--------|------------|-0--------|------------||
|-0--------|-5--6-------|-0--------|--5---6-----||
|-0--------|------------|-0--------|------------||


  Q=240
  PM---------------------------------------------------|
  Q  Q  Q  Q    Q  Q  Q  Q    Q  Q  Q  Q      Q  Q  Q  Q
|-------------|-------------|-------------||--------------||
|-------------|-------------|-------------||o-------------||
|-------------|-------------|-------------||--------------||
|-------------|-------------|-------------||--------------||
|-1--2--1--1--|-2--1--1--2--|-1--1--2--1--||o-1--2--1--1--||
|-3--4--3--3--|-4--3--3--4--|-3--3--4--3--||--3--4--3--3--||
|
|                     PM-------------------------------|
| W             H     Q  Q    Q  Q  Q  Q      Q  Q  Q  Q
|-------------|-------------|-------------||--------------||
|-------------|-------------|-------------||o-------------||
|-------------|-------------|-------------||--------------||
|-------------|-------------|-------------||--------------||
|-------------|-------1--2--|-1--1--2--1--||o-1--2--1--1--||
|-------------|-------3--4--|-3--3--4--3--||--3--4--3--3--||


  PM---------------------|                                PM-|
  Q  Q  Q  Q    Q  Q  Q  Q   4x E E E E E E E E   E E E E Q  Q
|-------------|--------------||-----------------|---------------||
|-------------|-------------o||-----------------|---------------||
|-------------|--------------||-----------------|---------------||
|-------------|--------------||-----------------|---------------||
|-2--1--1--2--|-1--1--2--1--o||-----------------|---------1--2--||
|-4--3--3--4--|-3--3--4--3---||-2p0-2p0-2p0-3p0-|-2p0-1p0-3--4--||
|
| PM---------------------|                                PM-|
| Q  Q  Q  Q    Q  Q  Q  Q   4x E E E E E E E E   E E E E Q  Q
|-------------|--------------||-----------------|---------------||
|-------------|-------------o||-----------------|---------------||
|-------------|--------------||-----------------|---------------||
|-------------|--------------||-----------------|---------------||
|-2--1--1--2--|-1--1--2--1--o||-----------------|---------1--2--||
|-4--3--3--4--|-3--3--4--3---||-2p0-2p0-2p0-3p0-|-2p0-1p0-3--4--||


                                          Q=260
  PM-------|
  Q  Q  Q  Q    E E E E E E E E   E E E E E E E E   E E E E E E E E
|-------------|-----------------|-----------------|-----------------||
|-------------|-----------------|-----------------|-----------------||
|-------------|-----------------|---------8-8-8-8-|-8-8-8-8-8-8-8-8-||
|-------------|-----------------|---------0-0-0-0-|-0-0-0-0-0-0-0-0-||
|-1--1--2--1--|-----------------|---------6-6-6-6-|-6-6-6-6-6-6-6-6-||
|-3--3--4--3--|-2p0-2p0-2p0-3p0-|-2p0-1p0---------|-----------------||
|
| PM-------|
| Q  Q  Q  Q    E E E E E E E E   E E E E E E E E   E E E E E E E E
|-------------|-----------------|-----------------|-----------------||
|-------------|-----------------|-----------------|-----------------||
|-------------|-----------------|---------8-8-8-8-|-8-8-8-8-8-8-8-8-||
|-------------|-----------------|---------0-0-0-0-|-0-0-0-0-0-0-0-0-||
|-1--1--2--1--|-----------------|---------6-6-6-6-|-6-6-6-6-6-6-6-6-||
|-3--3--4--3--|-2p0-2p0-2p0-3p0-|-2p0-1p0---------|-----------------||


  E E E E E E E E   E E E E E E E E   E E E E E E E E
|-----------------|-----------------|-----------------|
|-----------------|-----------------|-----------------|
|-8-8-8-8-8-8-8-8-|-8-8-8-8-8-8-8-8-|-8-8-8-8-8-8-8-8-|
|-0-0-0-0-0-0-0-0-|-0-0-0-0-0-0-0-0-|-0-0-0-0-0-0-0-0-|
|-6-6-6-6-6-6-6-6-|-6-6-6-6-6-6-6-6-|-6-6-6-6-6-6-6-6-|
|-----------------|-----------------|-----------------|
|
| E E E E E E E E   E E E E E E E E   E E E E E E E E
|-----------------|-----------------|-----------------|
|-----------------|-----------------|-----------------|
|-8-8-8-8-8-8-8-8-|-8-8-8-8-8-8-8-8-|-8-8-8-8-8-8-8-8-|
|-0-0-0-0-0-0-0-0-|-0-0-0-0-0-0-0-0-|-0-0-0-0-0-0-0-0-|
|-6-6-6-6-6-6-6-6-|-6-6-6-6-6-6-6-6-|-6-6-6-6-6-6-6-6-|
|-----------------|-----------------|-----------------|


  E E E E E E E E   E E E E   E  E  E  E
|-----------------|----------------------||
|-----------------|----------------------||
|-8-8-8-8-8-8-8-8-|-8-8-8-8---8--8--8--8-||
|-0-0-0-0-0-0-0-0-|-0-0-0-0---0--0--0--0-||
|-6-6-6-6-6-6-6-6-|-6-6-6-6---6--6--6--6-||
|-----------------|----------------------||
|
| PM      PM        PM
| Q   Q   Q   Q     Q   Q     E  E  E  E
|-----------------|----------------------||
|-----------------|----------------------||
|-----8-------8---|-----8---/15-15-15-15-||
|-----0-------0---|-----0-----0--0--0--0-||
|-0---6---0---6---|-0---6---/13-13-13-13-||
|-0-------0-------|-0--------------------||


   E  E  E  E  E  E  E  E    E  E  E  E  E  E  E  E
|-------------------------|-------------------------|
|-------------------------|-------------------------|
|--8--8--8--8--8--8--8--8-|--8--8--8--8--8--8--8--8-|
|--0--0--0--0--0--0--0--0-|--0--0--0--0--0--0--0--0-|
|--6--6--6--6--6--6--6--6-|--6--6--6--6--6--6--6--6-|
|-------------------------|-------------------------|
|
|  E  E  E  E  E  E  E  E    E  E  E  E  E  E  E  E
|-------------------------|-------------------------|
|-------------------------|-------------------------|
|-15-15-15-15-15-15-15-15-|-15-15-15-15-15-15-15-15-|
|--0--0--0--0--0--0--0--0-|--0--0--0--0--0--0--0--0-|
|-13-13-13-13-13-13-13-13-|-13-13-13-13-13-13-13-13-|
|-------------------------|-------------------------|


   E  E  E  E  E  E  E  E    E  E  E  E  E  E  E  E
|-------------------------|-------------------------||
|-------------------------|-------------------------||
|--8--8--8--8--8--8--8--8-|--8--8--8--8--8--8--8--8-||
|--0--0--0--0--0--0--0--0-|--0--0--0--0--0--0--0--0-||
|--6--6--6--6--6--6--6--6-|--6--6--6--6--6--6--6--6-||
|-------------------------|-------------------------||
|
|  E  E  E  E  E  E  E  E    E  E  E  E  E  E  E  E
|-------------------------|-------------------------||
|-------------------------|-------------------------||
|-15-15-15-15-15-15-15-15-|-15-15-15-15-15-15-15-15-||
|--0--0--0--0--0--0--0--0-|--0--0--0--0--0--0--0--0-||
|-13-13-13-13-13-13-13-13-|-13-13-13-13-13-13-13-13-||
|-------------------------|-------------------------||


   E  E  E  E  E  E  E  E    E  E  E  E E E E E
|-------------------------|---------------------|
|-------------------------|---------------------|
|--8--8--8--8--8--8--8--8-|--8--8--8--8---------|
|--0--0--0--0--0--0--0--0-|--0--0--0--0-7p0-6p0-|
|--6--6--6--6--6--6--6--6-|--6--6--6--6---------|
|-------------------------|---------------------|
|
|  E  E  E  E  E  E  E  E    E  E  E  E H
|-------------------------|---------------------|
|-------------------------|---------------------|
|-15-15-15-15-15-15-15-15-|-15-15-15-15---------|
|--0--0--0--0--0--0--0--0-|--0--0--0--0-0-------|
|-13-13-13-13-13-13-13-13-|-13-13-13-13-0-------|
|-------------------------|-------------0-------|


   E  E E E E E E E    E  E E E E E E E
|-------------------|-------------------||
|-------------------|-------------------||
|-------------------|-------------------||
|--5p=0-8p0-7p0-6p0-|--7p=0-6p0-5p0-8p0-||
|-------------------|-------------------||
|-------------------|-------------------||
|
| +W                  +W
|-------------------|-------------------||
|-------------------|-------------------||
|-------------------|-------------------||
|-(0)---------------|-(0)---------------||
|-(0)---------------|-(0)---------------||
|-(0)---------------|-(0)---------------||


   E  E E E E E E E    E  E E E E E E E    E  E E E E E E E   E E E E E E E E
|-------------------|-------------------|-------------------|-----------------||
|-------------------|-------------------|-------------------|-----------------||
|-------------------|-------------------|-------------------|---------7p0-6p0-||
|--7p=0-6p0-7p0-6p0-|--5p=0-8p0-7p0-6p0-|--7p=0-6p0-5p0-8p0-|-7p0-6p0---------||
|-------------------|-------------------|-------------------|-----------------||
|-------------------|-------------------|-------------------|-----------------||
|
| +W                  +W                  +H        H         H       H
|-------------------|-------------------|-------------------|-----------------||
|-------------------|-------------------|-------------------|-----------------||
|-------------------|-------------------|-------------------|-----------------||
|-(0)---------------|-(0)---------------|-(0)---------------|---------1-------||
|-(0)---------------|-(0)---------------|-(0)---------------|---------1-------||
|-(0)---------------|-(0)---------------|-(0)---------------|---------1-------||


   E  E E E E E E E    E  E E E E E E E
|-------------------|-------------------|
|-------------------|-------------------|
|--5p=0-8p0-7p0-6p0-|--7p=0-6p0-5p0-8p0-|
|-------------------|-------------------|
|-------------------|-------------------|
|-------------------|-------------------|
|
| +W                  +W
|-------------------|-------------------|
|-------------------|-------------------|
|-------------------|-------------------|
|-(1)---------------|-(1)---------------|
|-(1)---------------|-(1)---------------|
|-(1)---------------|-(1)---------------|


   E  E E E E E E E    E  E E E E E E E
|-------------------|-------------------||
|-------------------|-------------------||
|--7p=0-6p0-7p0-6p0-|--5p=0-8p0-7p0-6p0-||
|-------------------|-------------------||
|-------------------|-------------------||
|-------------------|-------------------||
|
| +W                  +W
|-------------------|-------------------||
|-------------------|-------------------||
|-------------------|-------------------||
|-(1)---------------|-(1)---------------||
|-(1)---------------|-(1)---------------||
|-(1)---------------|-(1)---------------||


   E  E E E E E E E    E  E E E E E E E   E E  E E E E E E   E E E E E E  E E
|-------------------|-------------------|------------------|------------------||
|-------------------|-------------------|------------------|------------------||
|--7p=0-6p0-5p0-8p0-|--7p=0-6p0---------|------------------|------------------||
|-------------------|-----------7p0-6p0-|-5p0--8p0-7p0-6p0-|-7p0-6p0-5p0--8p0-||
|-------------------|-------------------|------------------|------------------||
|-------------------|-------------------|------------------|------------------||
|
| +W                  +H        E E E E   E E  E E E E E E   E E E E E E  E E
|-------------------|-------------------|------------------|------------------||
|-------------------|-------------------|------------------|------------------||
|-------------------|-----------9p0-8p0-|-7p0-10p0-9p0-8p0-|-9p0-8p0-7p0-10p0-||
|-(1)---------------|-(1)---------------|------------------|------------------||
|-(1)---------------|-(1)---------------|------------------|------------------||
|-(1)---------------|-(1)---------------|------------------|------------------||


  E E E E E E E E   E E  E E E E E E   E E E E E E  E E   E E E E  E E E E
|-----------------|------------------|------------------|------------------||
|-----------------|------------------|------------------|---------10p0-9p0-||
|-----------------|------------------|------------------|------------------||
|-7p0-6p0-7p0-6p0-|-5p0--8p0-7p0-6p0-|-7p0-6p0-5p0--8p0-|-7p0-6p0----------||
|-----------------|------------------|------------------|------------------||
|-----------------|------------------|------------------|------------------||
|
| E E E E E E E E   E E  E E E E E E   E E E E E E  E E   E E E E  E E E E
|-----------------|------------------|------------------|------------------||
|-----------------|------------------|------------------|---------10p0-9p0-||
|-9p0-8p0-9p0-8p0-|-7p0-10p0-9p0-8p0-|-9p0-8p0-7p0-10p0-|-9p0-8p0----------||
|-----------------|------------------|------------------|------------------||
|-----------------|------------------|------------------|------------------||
|-----------------|------------------|------------------|------------------||


  E E  E E  E E E E    E E E E E E  E E
|-------------------|-------------------|
|-8p0-11p0-10p0-9p0-|-10p0-9p0-8p0-11p0-|
|-------------------|-------------------|
|-------------------|-------------------|
|-------------------|-------------------|
|-------------------|-------------------|
|
| E E  E E  E E E E    E E E E E E  E E
|-------------------|-------------------|
|-8p0-11p0-10p0-9p0-|-10p0-9p0-8p0-11p0-|
|-------------------|-------------------|
|-------------------|-------------------|
|-------------------|-------------------|
|-------------------|-------------------|


   E E E E  E E E E   E E  E E  E E E E
|-------------------|-------------------||
|-10p0-9p0-10p0-9p0-|-8p0-11p0-10p0-9p0-||
|-------------------|-------------------||
|-------------------|-------------------||
|-------------------|-------------------||
|-------------------|-------------------||
|
|  E E E E  E E E E   E E  E E  E E E E
|-------------------|-------------------||
|-10p0-9p0-10p0-9p0-|-8p0-11p0-10p0-9p0-||
|-------------------|-------------------||
|-------------------|-------------------||
|-------------------|-------------------||
|-------------------|-------------------||


                               Q=80
   E E E E E E  E E    E E E E H      +W           +H     H
|-------------------|---------------|------------|-------------||
|-10p0-9p0-8p0-11p0-|-10p0-9p0------|------------|-------------||
|-------------------|---------------|------------|-------------||
|-------------------|----------0----|-(0)--------|-(0)----1----||
|-------------------|----------0----|-(0)--------|-(0)----1----||
|-------------------|----------0----|-(0)--------|-(0)----1----||
|
|  E E E E E E  E E    E E E E H      +W           +H     H
|-------------------|---------------|------------|-------------||
|-10p0-9p0-8p0-11p0-|-10p0-9p0------|------------|-------------||
|-------------------|---------------|------------|-------------||
|-------------------|----------0----|-(0)--------|-(0)----1----||
|-------------------|----------0----|-(0)--------|-(0)----1----||
|-------------------|----------0----|-(0)--------|-(0)----1----||


                             CHORUS Q=140
  +W           +H     H      W           Q   H.
|------------|-------------|----------|------------||
|------------|-------------|----------|------------||
|------------|-------------|----------|-14--15-----||
|-(1)--------|-(1)---------|-0--------|------------||
|-(1)--------|-(1)---------|-0--------|-12--13-----||
|-(1)--------|-(1)---------|-0--------|------------||
|
| +W           +H     H      W           Q   H.
|------------|-------------|----------|------------||
|------------|-------------|----------|------------||
|------------|-------------|----------|--7---8-----||
|-(1)--------|-(1)---------|-0--------|------------||
|-(1)--------|-(1)---------|-0--------|--5---6-----||
|-(1)--------|-(1)---------|-0--------|------------||


  W           Q   H.           W           Q   H.
|----------|-----------------|----------|------------||
|----------|-----------------|----------|------------||
|----------|-14--15----------|----------|-14--15-----||
|-0--------|-----------------|-0--------|------------||
|-0--------|-12--13----------|-0--------|-12--13-----||
|-0--------|-----------------|-0--------|------------||
|
|                       ~~~
| W           Q   Q     H      W           Q   H.
|----------|-----------------|----------|------------||
|----------|-----------------|----------|------------||
|----------|--7---8----------|----------|--7---8-----||
|-0--------|-----------------|-0--------|------------||
|-0--------|--5---6---/15----|-0--------|--5---6-----||
|-0--------|-----------------|-0--------|------------||


  H    Q  Q    Q  Q  Q  Q    W          Q  Q    H
|------------|-------------|----------|---------------||
|------------|-------------|----------|---------------||
|------------|-------------|----------|-7--8----------||
|-3----3--3--|-3--2--2--2--|-0--------|-------/15\----||
|-3----3--3--|-3--2--2--2--|-0--------|-5--6--/15\----||
|-3----3--3--|-3--2--2--2--|-0--------|-------/15\----||
|
| H    Q  Q    Q  Q  Q  Q    W          Q  Q    H
|------------|-------------|----------|---------------||
|------------|-------------|----------|---------------||
|------------|-------------|----------|-7--8----------||
|-3----3--3--|-3--2--2--2--|-0--------|-------/15\----||
|-3----3--3--|-3--2--2--2--|-0--------|-5--6--/15\----||
|-3----3--3--|-3--2--2--2--|-0--------|-------/15\----||


  W          Q  H.        W          Q  H.
|----------|------------|----------|----------||
|----------|------------|----------|----------||
|----------|-7--8-------|----------|-7--8-----||
|-0--------|------------|-0--------|----------||
|-0--------|-5--6-------|-0--------|-5--6-----||
|-0--------|------------|-0--------|----------||
|
| W          Q  H.        W          Q  H.
|----------|------------|----------|----------||
|----------|------------|----------|----------||
|----------|-7--8-------|----------|-7--8-----||
|-0--------|------------|-0--------|----------||
|-0--------|-5--6-------|-0--------|-5--6-----||
|-0--------|------------|-0--------|----------||


                          Q=100
                          PM--|
  W          Q  H.        S S S H.      S
|----------|------------|-----------------|
|----------|------------|-----------------|
|----------|-7--8-------|-----------------|
|-0--------|------------|-0-0-0-----------|
|-0--------|-5--6-------|-0-0-0-----------|
|-0--------|------------|-0-0-0-----------|
|
|                         PM--|
| W          Q  H.        S S S H.      S
|----------|------------|-----------------|
|----------|------------|-----------------|
|----------|-7--8-------|-----------------|
|-0--------|------------|-0-0-0-----------|
|-0--------|-5--6-------|-0-0-0-----------|
|-0--------|------------|-0-0-0-----------|


    S S E    S  S  S S S S  S  S  S  S  S  S    4x
||----------------------------------------------||
||o--------------------------------------------o||
||----------15-15-15-7-7-7-14-14-14-14-14-14----||
||--0-0-0---------------------------------------||
||o-0-0-0---13-13-13-5-5-5-12-12-12-12-12-12---o||
||--0-0-0---------------------------------------||
|
|   Gtr III
|   S S S S  S  S  S S S S  S  S  S  S  S  S    4x
||----------------------------------------------||
||o--------------------------------------------o||
||----x---------x----x------x-------------------||
||--x---x----x-----------x--------------x-------||
||o-------x--------x---x-------x-----------x---o||
||--------------------------------xs=x----------||


    Gtr I
    S S E  S  S  S S S S  S  S  S  S  S  S  4x
||------------------------------------------||
||o----------------------------------------o||
||--------15-15-15-7-7-7-14-14-14-14-14-14--||
||--0-0-0-----------------------------------||
||o-0-0-0-13-13-13-5-5-5-12-12-12-12-12-12-o||
||--0-0-0-----------------------------------||
|
|   Gtr II
|   S S E  S  S  S S S S  S  S  S  S  S  S  4x
||------------------------------------------||
||o----------------------------------------o||
||--------15-15-15-7-7-7-14-14-14-14-14-14--||
||--0-0-0-----------------------------------||
||o-0-0-0-13-13-13-5-5-5-12-12-12-12-12-12-o||
||--0-0-0-----------------------------------||


                Q=100
  S S S S S S S S S S S S S S S S
|---------------------------------||
|---------------------------------||
|-5-5-5-5-5-5-5-5-5-5-5-5-5-5-5-5-||
|-0-0-0-0-0-0-0-0-0-0-0-0-0-0-0-0-||
|-3-3-3-3-3-3-3-3-3-3-3-3-3-3-3-3-||
|---------------------------------||
|
| S S S S S S S S S S S S S S S S
|---------------------------------||
|---------------------------------||
|-0-0-0-0-0-0-0-0-0-0-0-0-0-0-0-0-||
|-4-4-4-4-4-4-4-4-4-4-4-4-4-4-4-4-||
|-3-3-3-3-3-3-3-3-3-3-3-3-3-3-3-3-||
|---------------------------------||


    Q=90
    E E E E E E E E    E E E E E E E E  4x
||------------------|-------------------||-|
||o-0-0-0-0-0-0-0-0-|--0-0-0-0-0-0-0-0-o||-|
||--4-4-4-4-4-4-4-4-|-/7-7-7-7-5-5-5-5--||-|
||------------------|-------------------||-|
||o-----------------|------------------o||-|
||------------------|-------------------||-|
|
|   W                  W                4x
||------------------|-------------------||-|
||o-----------------|------------------o||-|
||------------------|-------------------||-|
||------------------|-------------------||-|
||o-----------------|------------------o||-|
||------------------|-------------------||-|


    E E E E E E E E     E  E  E  E E E E E  4x
||------------------|-----------------------||
||o-0-0-0-0-0-0-0-0-|---0--0--0--0-0-0-0-0-o||
||--4-4-4-4-4-4-4-4-|--/7--7--7--7-5-5-5-5--||
||------------------|-----------------------||
||o-----------------|----------------------o||
||------------------|-----------------------||
|
|   E E E E E E E E     E  E  E  E E E E E  4x
||--7-7-7-7-7-7-7-7-|-/10-10-10-10-8-8-8-8--||
||o-0-0-0-0-0-0-0-0-|---0--0--0--0-0-0-0-0-o||
||------------------|-----------------------||
||------------------|-----------------------||
||o-----------------|----------------------o||
||------------------|-----------------------||


  E E E  E E E E E     E  E  E  E E E E E
|------------------|----------------------|
|-0-0-0--0-0-0-0-0-|---0--0--0--0-0-0-0-0-|
|-4-4-4--4-4-4-4-4-|--/7--7--7--7-5-5-5-5-|
|------------------|----------------------|
|------------------|----------------------|
|------------------|----------------------|
|
| E E E  E E E E E     E  E  E  E E E E E
|-7-7-7--7-7-7-7-7-|-/10-10-10-10-8-8-8-8-|
|-0-0-0--0-0-0-0-0-|---0--0--0--0-0-0-0-0-|
|------------------|----------------------|
|------------------|----------------------|
|------------------|----------------------|
|------------------|----------------------|
|
| Gtr IV
| E E H.               W
|-8-7--------------|----------------------|
|-----7------------|----------------------|
|------------------|----------------------|
|------------------|----------------------|
|------------------|----------------------|
|------------------|----------------------|


  E E E  E E E E E    E E E E E E E E
|------------------|------------------||
|-0-0-0--0-0-0-0-0-|--0-0-0-0-0-0-0-0-||
|-4-4-4--4-4-4-4-4-|-/7-7-7-7-5-5-5-5-||
|------------------|------------------||
|------------------|------------------||
|------------------|------------------||
|
| E E E  E E E E E    E E E E E E E E
|-7-7-7--7-7-7-7-7-|--5-5-5-5-3-3-3-3-||
|-0-0-0--0-0-0-0-0-|--0-0-0-0-0-0-0-0-||
|------------------|------------------||
|------------------|------------------||
|------------------|------------------||
|------------------|------------------||
|
| E E H.              W
|-8-7--------------|------------------||
|-----7------------|------------------||
|------------------|------------------||
|------------------|------------------||
|------------------|------------------||
|------------------|------------------||


    E E E  E E E E E     E  E  E      E     E   E E E  6x
||-------------------|---------------------------------||
||o-0-0-0--0-0-0-0-0-|---0--0--0------0-----0---0-0-0-o||
||--4-4-4--4-4-4-4-4-|---4--4--4b4.5--4b4.5-4b5r4-4-4--||
||-------------------|---------------------------------||
||o------------------|--------------------------------o||
||-------------------|---------------------------------||
|
|   E E E  E E E E E     E  E  E      E     E   E E E  6x
||--7-7-7--7-7-7-7-7-|-/10-10-10-----10-----8---8-8-8--||
||o-0-0-0--0-0-0-0-0-|---0--0--0------0-----0---0-0-0-o||
||-------------------|---------------------------------||
||-------------------|---------------------------------||
||o------------------|--------------------------------o||
||-------------------|---------------------------------||
|
|   E E H.               W                             6x
||--8-7--------------|---------------------------------||
||o-----7------------|--------------------------------o||
||-------------------|---------------------------------||
||-------------------|---------------------------------||
||o------------------|--------------------------------o||
||-------------------|---------------------------------||


  W                   W
|------------------|----------------------||
|------------------|----------------------||
|------------------|----------------------||
|------------------|----------------------||
|------------------|----------------------||
|------------------|----------------------||
|
| >                   >
| E E E  E E E E E    E  E  E  E E E E E
|-7-7-7--7-7-7-7-7-|-10-10-10-10-8-8-8-8--||
|-0-0-0--0-0-0-0-0-|--0--0--0--0-0-0-0-0--||
|------------------|----------------------||
|------------------|----------------------||
|------------------|----------------------||
|------------------|----------------------||
|
| E E H.              W
|-8-7--------------|----------------------||
|-----7------------|----------------------||
|------------------|----------------------||
|------------------|----------------------||
|------------------|----------------------||
|------------------|----------------------||


  W                 W               W            W
|-----------------|--------------|------------|--------*|
|-----------------|--------------|------------|--------*|
|-----------------|--------------|------------|--------*|
|-----------------|--------------|------------|--------*|
|-----------------|--------------|------------|--------*|
|-----------------|--------------|------------|--------*|
|
| >                 >
| E E E E E E E E   E E E E H      +W           +W
|-7-7-7-7-7-7-7-7-|-5-5-5-5-3----|-(3)--------|-(3)----*|
|-0-0-0-0-0-0-0-0-|-0-0-0-0-0----|-(0)--------|-(0)----*|
|-----------------|--------------|------------|--------*|
|-----------------|--------------|------------|--------*|
|-----------------|--------------|------------|--------*|
|-----------------|--------------|------------|--------*|



Duration Legend
---------------
W - whole; H - half; Q - quarter; E - 8th; S - 16th; T - 32nd; X - 64th; a - acciaccatura
+ - note tied to previous; . - note dotted; .. - note double dotted
Uncapitalized letters represent notes that are staccato (1/2 duration)
Irregular groupings are notated above the duration line
Duration letters will always appear directly above the note/fret number it represents the
duration for.  Duration letters with no fret number below them represent rests.  Multi-
bar rests are notated in the form Wxn, where n is the number of bars to rest for.  Low
melody durations appear below the staff

Tablature Legend
----------------
 h   - hammer-on
 p   - pull-off
 b   - bend
 pb  - pre-bend
 r   - bend release (if no number after the r, then release immediately)
 /\  - slide into or out of (from/to "nowhere")
 s   - legato slide
 S   - shift slide
 - natural harmonic
[n]  - artificial harmonic
n(n) - tapped harmonic
 ~   - vibrato
 tr  - trill
 T   - tap
 TP  - trem. picking
 PM  - palm muting
\n/  - tremolo bar dip; n = amount to dip
 \n  - tremolo bar down
 n/  - tremolo bar up
/n\  - tremolo bar inverted dip
 =   - hold bend; also acts as connecting device for hammers/pulls
 <> - volume swell (louder/softer)
 x   - on rhythm slash represents muted slash
 o   - on rhythm slash represents single note slash

Misc Legend
-----------
 |  - bar
||  - double bar
||o - repeat start
o|| - repeat end
*|  - double bar (ending)
 :  - bar (freetime)
 $  - Segno
 &  - Coda
Tempo markers -  = BPM(8/16=s8/s16), where s8 = swing 8ths, s16 = swing 16ths

Добавлено: 04.09.2013
Другие материалы по этой песне:

Страница создана 25.04.2012
http://primanota.ru/norma-jean/human-face-divine-chords.htm
Привет, Гость.
Предлагаем пройти революционный курс по гитаре.
Подарок от PrimaNota.Ru, забирай!