PrimaNota.ru - самый крупный в мире бесплатный архив песенных текстов, аккордов, табулатур и нот


Norma Jean - No Passenger _ No Parasite - таба, видео

Регистрация Запомнить меня
Войти через:  Facebook Google Twitter Vk Yandex Mail.ru

Norma Jean - No Passenger _ No Parasite - таба, видео

Печатать
Просмотров: 131
No Passenger, No Parasite
Norma Jean
-------------------------------------------------------------------------------
Tabbed by:KCibanez

Tuning: Down 1/2 step, tune e to a b

This is missing a few things here and there, but its enough to
play along with the cd. Remember that if its in {} I wasn't
shure it is being played. This is my first tab, so its not 100%

Even though its not guitar, you can play the weird intro with the
 right effects and bends, just make shure to fret it.

e|--------------------------------------------------------------------------|
B|--------------------------------------------------------------------------|
G|--------------------------------------------------------------------------|
D|----3~---4-----3----------------------------------------------------------|
A|----3~---4-----3-----repeat as much as necessary--------------------------|
E|----3~---4-----3----------------------------------------------------------|

  0:36 this is played throughout the whole song.
e|--------------------------------------------------------------------------|
B|---------------------22---------------------------------------------------|
G|--------------------------------------------------------------------------|
D|--------------------------------------------------------------------------|
A|--------------------------------------------------------------------------|
E|--------------------------------------------------------------------------|

  0:56,
e|--------------------------------------------------------------------------|
B|--------------------------------------------------------------------------|
G|--------------------------------------------------------------------------|
D|-{9}----------------------------------------------------------------------|
A|--7-----------------------------------------------------------------------|
E|--7 pm--------------------------------------------------------------------|

  This is repeated multiple times.
e|--------------------------------------------------------------------------|
B|--------------------------------------------------------------------------|
G|---------------------------------------{9}--------------------------------|
D|---7-------7-------3------5------7------7-------3----- 5------------------|
A|---7-x4----7-x4----3-x4---5-x4---7-x4---7 x4----3-x4---5-x4---------------|
E|---7-------7-------3------5------7------7-------3------5------------------|

  1:35 Guitar 2 comes and plays this over the above many times
e|--------------------------------------------------------------------------|
B|--------------------------------------------------------------------------|
G|--------------------------------------------------------------------------|
D|------10----------7-------------------------------------------------------|
A|------ 8---pm-----5--pm---------------------------------------------------|
E|--------------------------------------------------------------------------|
   2:25 mess around with this and different strums and you'll get it.
e|--------------------------------------------------------------------------|
B|--------------------------------------------------------------------------|
G|----{10}----{7}-----------------------------------------------------------|
D|-----10------7------------------------------------------------------------|
A|------8-pm---5------------------------------------------------------------|
E|--------------------------------------------------------------------------|
   At 2:36 Guitar two plays this over G1, begin with volume swell
e|--------------------------------------------------------------------------|
B|--------------------------------------------------------------------------|
G|--------------------------------------------------------------------------|
D|----9~-9-14-12-9-x3-then-9-12-9-9-14-9------------------------------------|
A|--------------------------------------------------------------------------|
E|--------------------------------------------------------------------------|
    G2 at 2:44, just listen to the song to here when its played
e|--------------------------------------------------------------------------|
B|--------------------------------------------------------------------------|
G|-------------------12x6---------------------------------------------------|
D|----10-x3--12x3---------14-12p0-10 x2-------------------------------------|
A|--------------------------------------------------------------------------|
E|--------------------------------------------------------------------------|
  Some of the guitar parts are hard to hear so this is not all of it.
  These are just random things I hear. 3:10 this is played fast
e|--------------------------------------------------------------------------|
B|---13-12p0-10-------------------------------------------------------------|
G|--------------------------------------------------------------------------|
D|--------------------------------------------------------------------------|
A|--------------------------------------------------------------------------|
E|--------------------------------------------------------------------------|
   And at 3:35 I hear something like this being played.
   Play with this and the above notes and you'll figure it out.
e|--------------------------------------------------------------------------|
B|--------------------------------------------------------------------------|
G|------12----10----14------------------------------------------------------|
D|------x-----x-----x-------------------------------------------------------|
A|------10----8-----12------------------------------------------------------|
E|--------------------------------------------------------------------------|
   3:50 This Outro Starts to play until the end.
e|---------------------------------------------------------------------------|
B|---------------------------------------------------------------------------|
G|--9--------10----9---------------------------------------------------------|
D|--x-x30----x---- x-x4----7--------7-------3-------5------------------------|
A|--7--------8---- 7-------7--x4----7--x4---3--x4---5--x4--------------------|
E|-------------------------7--------7-------3-------5------------------------|

I know that its missing stuff, but its a start. I will update if i have any more. Please 
with corrections.
============================================================================
Добавлено: 03.12.2013
Другие материалы по этой песне:
  • Аккорды и текст

Страница создана 03.12.2013
http://primanota.ru/norma-jean/no-passenger-no-parasite-chords.htm
Привет, Гость.
Предлагаем пройти революционный курс по гитаре.
Подарок от PrimaNota.Ru, забирай!