PrimaNota.ru - самый крупный в мире бесплатный архив песенных текстов, аккордов, табулатур и нот


Norma Jean - Face Face - текст песни, таба, видео

Регистрация Запомнить меня
Войти через:  Facebook Google Twitter Vk Yandex Mail.ru

Norma Jean - Face Face - текст песни, таба, видео

Печатать
Просмотров: 110
As recorded by Norma Jean
(From the 2002 Album BLESS THE MARTYR, KISS THE CHILD)

Transcribed by James Martyn
	

Words by Josh Scogin Music by Norma Jean

Gtr I (Db Ab Db Gb Bb Eb) - 'Untitled'
Gtr II (Db Ab Db Gb Bb Eb) - 'Untitled'
Gtr III (Db Ab Db Gb Bb Eb) - 'Overdubs'

   Intro
    Q=135
    F        D5 F  D5 F        D5 F  D5 F  D5 F  D5
   7/4
    Gtr I
     S  S  E  E  E  E  S  S  E  E  E  E  E  E  E  E
||--------------------------------------------------|
||o-------------------------------------------------|
||--10-10-10----10----10-10-10----10----10----10----|
||--------------------------------------------------|
||o--8--8--8--0--8--0--8--8--8--0--8--0--8--0--8--0-|
||------------0-----0-----------0-----0-----0-----0-|
|
|   Gtr II
|    S  S  E  E  E  E  S  S  E  E  E  E  E  E  E  E
||--15-15-15-15-15-15-15-15-15-15-15-15-15-15-15-15-|
||o-19-19-19-18-19-18-19-19-19-18-19-18-19-18-19-18-|
||--------------------------------------------------|
||--------------------------------------------------|
||o-------------------------------------------------|
||--------------------------------------------------|


  F        D5 F  D5 F        D5 F  D5 F  D5
 6/4
   S  S  E  E  E  E  S  S  E  E  E  E  E  E
|---------------------------------------------||
|--------------------------------------------o||
|-10-10-10----10----10-10-10----10----10------||
|---------------------------------------------||
|--8--8--8--0--8--0--8--8--8--0--8--0--8--0--o||
|-----------0-----0-----------0-----0-----0---||
|
|  S  S  E  E  E  E  S  S  E  E  E  E  E  E
|-15-15-15-15-15-15-15-15-15-15-15-15-15-15---||
|-19-19-19-18-19-18-19-19-19-18-19-18-19-18--o||
|---------------------------------------------||
|---------------------------------------------||
|--------------------------------------------o||
|---------------------------------------------||


 Chorus
  G5A5G5D5BbD5G5A5G5D5BbD5BbD5  G5A5G5D5BbD5G5A5G5D5BbD5BbD5
 6/4
  Gtrs I, II
  S S E E E E S S E E E E E E   S S E E E E S S E E E E E E
|-----------------------------|-----------------------------|
|-----------------------------|-----------------------------|
|-----------------------------|-----------------------------|
|-------0-8-0-------0-8-0-8-0-|-------0-8-0-------0-8-0-8-0-|
|-5s7s5-0-8-0-5s7s5-0-8-0-8-0-|-5s7s5-0-8-0-5s7s5-0-8-0-8-0-|
|-5s7s5-0-8-0-5s7s5-0-8-0-8-0-|-5s7s5-0-8-0-5s7s5-0-8-0-8-0-|


  G5    D5BbD5G5A5G5D5BbD5BbD5  G5A5G5D5BbD5G5A5G5D5N.C.
                               7/4
  S S E E E E S S E E E E E E   S S E E E E S S E E E E E E E E
|-----------------------------|----------------------------------|
|-----------------------------|----------------------------------|
|-----------------------------|----------------------------------|
|-------0-8-0-------0-8-0-8-0-|-------0-8-0-------0--------------|
|-5s7s5-0-8-0-5s7s5-0-8-0-8-0-|-5s7s5-0-8-0-5s7s5-0-8p0-8p0-8p0--|
|-5s7s5-0-8-0-5s7s5-0-8-0-8-0-|-5s7s5-0-8-0-5s7s5-0--------------|


    G5A5G5D5BbD5G5A5G5D5BbD5BbD5  G5A5G5D5BbD5G5A5G5D5BbD5BbD5
   6/4
    S S E E E E S S E E E E E E   S S E E E E S S E E E E E E
||------------------------------|------------------------------||
||o-----------------------------|-----------------------------o||
||------------------------------|------------------------------||
||--------0-8-0-------0-8-0-8-0-|-------0-8-0-------0-8-0-8-0--||
||o-5s7s5-0-8-0-5s7s5-0-8-0-8-0-|-5s7s5-0-8-0-5s7s5-0-8-0-8-0-o||
||--5s7s5-0-8-0-5s7s5-0-8-0-8-0-|-5s7s5-0-8-0-5s7s5-0-8-0-8-0--||


   Intro Reprise
    F        D5 F  D5 F        D5 F  D5 F  D5 F  D5
   7/4
    Gtr I
     S  S  E  E  E  E  S  S  E  E  E  E  E  E  E  E
||--------------------------------------------------|
||o-------------------------------------------------|
||--10-10-10----10----10-10-10----10----10----10----|
||--------------------------------------------------|
||o--8--8--8--0--8--0--8--8--8--0--8--0--8--0--8--0-|
||------------0-----0-----------0-----0-----0-----0-|
|
|   Gtr II
|    S  S  E  E  E  E  S  S  E  E  E  E  E  E  E  E
||--18-18-18-18-18-18-18-18-18-18-18-18-18-18-18-18-|
||o-21-21-21-22-21-22-21-21-21-22-21-22-21-22-21-22-|
||--------------------------------------------------|
||--------------------------------------------------|
||o-------------------------------------------------|
||--------------------------------------------------|
|
|   Gtr III
|    S  S  E  E  E  E  S  S  E  E  E  E  E  E  E  E
||--15-15-15-15-15-15-15-15-15-15-15-15-15-15-15-15-|
||o-19-19-19-18-19-18-19-19-19-18-19-18-19-18-19-18-|
||--------------------------------------------------|
||--------------------------------------------------|
||o-------------------------------------------------|
||--------------------------------------------------|


  F        D5 F  D5 F        D5 F  D5 F  D5
 6/4
   S  S  E  E  E  E  S  S  E  E  E  E  E  E
|---------------------------------------------||
|--------------------------------------------o||
|-10-10-10----10----10-10-10----10----10------||
|---------------------------------------------||
|--8--8--8--0--8--0--8--8--8--0--8--0--8--0--o||
|-----------0-----0-----------0-----0-----0---||
|
|  S  S  E  E  E  E  S  S  E  E  E  E  E  E
|-18-18-18-18-18-18-18-18-18-18-18-18-18-18---||
|-21-21-21-22-21-22-21-21-21-22-21-22-21-22--o||
|---------------------------------------------||
|---------------------------------------------||
|--------------------------------------------o||
|---------------------------------------------||
|
|  S  S  E  E  E  E  S  S  E  E  E  E  E  E
|-15-15-15-15-15-15-15-15-15-15-15-15-15-15---||
|-19-19-19-18-19-18-19-19-19-18-19-18-19-18--o||
|---------------------------------------------||
|---------------------------------------------||
|--------------------------------------------o||
|---------------------------------------------||


 Verse
  N.C.                                                       N.C.
 6/4                                                        4/4
         |--5:3---|         |--5:3---|         |--5:3---|      |----6----|
  S S S. S.S.S. S.S. S S S. S.S.S. S.S. S S S. S.S.S. S.S.     Q  q  Q q H
|----------------------------------------------------------|----------------|
|----------------------------------------------------------|----------------|
|----------------------------------------------------------|--/7--7-/6-6----|
|-3p2p0--------------3p2p0--------------3p2p0--------------|--/6--6-/5-5----|
|--------3p2p0--------------3p2p0--------------3p2p0-------|----------------|
|---------------3p0----------------3p0----------------3p0--|----------------|
|
|                                                              |----6----|
| E   Q.             E   Q.             E   Q.                 Q  q  Q q H
|----------------------------------------------------------|-/10-10-/9-9----|
|----------------------------------------------------------|--/9--9-/8-8----|
|----------------------------------------------------------|----------------|
|-0------------------0------------------0------------------|----------------|
|-0------------------0------------------0------------------|----------------|
|-0------------------0------------------0------------------|----------------|


    N.C.                              N.C.
   4/4                               4/4
                                                     PM
                                        |--------6--------|
    S S S S S S S S S S S S S S S S     Q  q  Q q S. q.  +T   4x
||----------------------------------|-------------------------||
||o---------------------------------|------------------------o||
||----------------------------------|--/7--7-/6-6-------------||
||--3p2p0-----------3p2p0-----------|--/6--6-/5-5-------------||
||o-------3p2p0-----------3p2p0-----|-------------0--0---(0)-o||
||--------------3p0-------------3p0-|-------------0--0---(0)--||
|
|                                                    PM
|                                       |--------6--------|
|   S S S S S S S S S S S S S S S S     Q  q  Q q S. q.  +T   4x
||----------------------------------|-/10-10-/9-9-------------||
||o---------------------------------|--/9--9-/8-8------------o||
||----------------------------------|-------------------------||
||--3p2p0-----------3p2p0-----------|-------------------------||
||o-------3p2p0-----------3p2p0-----|-------------0--0---(0)-o||
||--------------3p0-------------3p0-|-------------0--0---(0)--||


    N.C.
   9/8
    S S S S S S S S S S S S S S S S S S
||--------------------------------------|
||o-------------------------------------|
||--------------------------------------|
||--5p4p0-----------5p4p0---------------|
||o-------3p2p0-----------3p0-3p2p0-----|
||--------------3p0-----------------3p0-|
|
|   S S S S S S S S S S S S S S S S S S
||--------------------------------------|
||o-------------------------------------|
||--------------------------------------|
||--5p4p0-----------5p4p0---------------|
||o-------3p2p0-----------3p0-3p2p0-----|
||--------------3p0-----------------3p0-|


                                            N.C.
                                           4/4
                                              |----6----|
  S S S S S S S S S S S S S S S S S S  4x     Q  q  Q q H
|--------------------------------------||-|-----------------|
|-------------------------------------o||-|-----------------|
|--------------------------------------||-|--/7--7-/6-6-----|
|-5p4p0-----------5p4p0----------------||-|--/6--6-/5-5-----|
|-------3p2p0-----------3p0-3p2p0-----o||-|-----------------|
|-------------3p0-----------------3p0--||-|-----------------|
|
|                                             |----6----|
| S S S S S S S S S S S S S S S S S S  4x     Q  q  Q q H
|--------------------------------------||-|-/10-10-/9-9-----|
|-------------------------------------o||-|--/9--9-/8-8-----|
|--------------------------------------||-|-----------------|
|-5p4p0-----------5p4p0----------------||-|-----------------|
|-------3p2p0-----------3p0-3p2p0-----o||-|-----------------|
|-------------3p0-----------------3p0--||-|-----------------|


 Guitar Break
  Q=155                                                  H=H
  D5N.C.    D5      N.C.    D5      N.C.    D5      N.C. D5
  Gtrs I, II
  PM        PM----|         PM----|         PM----|      PM|
  E H.      S S   E H.      S S   E H.      S S   E Q.   E E Q
|---------------|---------------|---------------|----------------|
|---4-----------|---4-----------|---4-----------|---4------------|
|---7-----------|---7-----------|---7-----------|---7------------|
|---------------|---------------|---------------|----------------|
|-0---------0-0-|-0---------0-0-|-0---------0-0-|-0------0-0-----|
|-0---------0-0-|-0---------0-0-|-0---------0-0-|-0------0-0-----|


  Q=175
  N.C.(D)
  E E E E E E E E   E E E E E E E E   E E E E E E E E   E E E E E E E E
|-----------------|-----------------|-----------------|-----------------|
|-----------------|-----------------|-----------------|-----------------|
|-7-7-7-7-7-7-7-7-|-7-7-7-7-7-7-7-7-|-7-7-7-7-7-7-7-7-|-7-7-7-7-7-7-7-7-|
|-----------------|-----------------|-----------------|-----------------|
|-5-5-5-5-5-5-5-5-|-5-5-5-5-5-5-5-5-|-5-5-5-5-5-5-5-5-|-5-5-5-5-5-5-5-5-|
|-----------------|-----------------|-----------------|-----------------|


  Gtr I
  E E E E E E E  E    E  E  E  E  E  E  E  E
|------------------|-------------------------|
|------------------|-------------------------|
|-7-7-7-7-7-7-7--7-|--7--7--7--7--7--7--7--7-|
|------------------|-------------------------|
|-5-5-5-5-5-5-5--5-|--5--5--5--5--5--5--5--5-|
|------------------|-------------------------|
|
| Gtr II
| E E E E E E E  E    E  E  E  E  E  E  E  E
|------------------|-------------------------|
|------------------|-------------------------|
|-7-7-7-7-7-7-7-12-|-12-12-12-12-12-12-12-12-|
|------------------|-------------------------|
|-5-5-5-5-5-5-5-10-|-10-10-10-10-10-10-10-10-|
|------------------|-------------------------|


   E  E  E  E  E  E  E  E    E  E  E  E  E  E  E  E
|-------------------------|-------------------------|
|-------------------------|-------------------------|
|--7--7--7--7--7--7--7--7-|--7--7--7--7--7--7--7--7-|
|-------------------------|-------------------------|
|--5--5--5--5--5--5--5--5-|--5--5--5--5--5--5--5--5-|
|-------------------------|-------------------------|
|
|  E  E  E  E  E  E  E  E    E  E  E  E  E  E  E  E
|-------------------------|-------------------------|
|-------------------------|-16-16-16-16-16-16-16-16-|
|-12-12-12-12-12-12-12-12-|-19-19-19-19-19-19-19-19-|
|-------------------------|-------------------------|
|-10-10-10-10-10-10-10-10-|-------------------------|
|-------------------------|-------------------------|


   She simply will not die.
    Q=165
    D5N.C. D5                N.C. D5  N.C.
    Gtrs I, II
    PM     PM--------------|      PM|
    E Q.   E S S S S S S   E Q.   E E Q
||-----------------------|---------------|
||o---4------------------|---4--------4--|
||----7------------------|---7--------7--|
||--0------0-0-0-0-0-0-0-|-0------0-0----|
||o-0------0-0-0-0-0-0-0-|-0------0-0----|
||--0------0-0-0-0-0-0-0-|-0------0-0----|


  D5N.C. D5                N.C. D5  N.C.
  PM     PM--------------|      PM|
  E Q.   E S S S S S S   E Q.   E E Q     4x
|----------------------|------------------||
|---4------------------|---4--------4----o||
|---7------------------|---7--------7-----||
|-0------0-0-0-0-0-0-0-|-0------0-0-------||
|-0------0-0-0-0-0-0-0-|-0------0-0------o||
|-0------0-0-0-0-0-0-0-|-0------0-0-------||


    D5
    PM----------------------------------
    E Q.   E S S S S S S   E H    E Q
||-----------------------|-------------|
||o----------------------|-------------|
||-----------------------|-------------|
||-----------------------|-------------|
||o-0-0----0-0-0-0-0-0-0-|-0-0----0-0--|
||--0-0----0-0-0-0-0-0-0-|-0-0----0-0--|


                         H.=H
 ---------------------------------|
  E Q.   E S S S S S S   E H    E Q
|----------------------|----------------||
|----------------------|---------------o||
|----------------------|----------------||
|----------------------|----------------||
|-0-0----0-0-0-0-0-0-0-|-0-0----0-0----o||
|-0-0----0-0-0-0-0-0-0-|-0-0----0-0-----||


 Transition
  Q=135
  G5A5G5D5BbD5G5A5G5D5BbD5BbD5  G5A5G5D5BbD5G5A5G5D5BbD5BbD5
 6/4
  Gtr I
  H         H         E E E E   Q.      E H         E E E E
|-----------------------------|-----------------------------|
|-----------------------------|-----------------------------|
|-----------------------------|-----------------------------|
|---------------------8---8---|---------8-----------8---8---|
|---------------------8---8---|---------8-----------8---8---|
|---------------------8---8---|---------8-----------8---8---|
|
| Gtr II
| S S E E E E S S E E E E E E   S S E E E E S S E E E E E E
|-----------------------------|-----------------------------|
|-----------------------------|-----------------------------|
|-----------------------------|-----------------------------|
|-------0-8-0-------0-8-0-8-0-|-------0-8-0-------0-8-0-8-0-|
|-5s7s5-0-8-0-5s7s5-0-8-0-8-0-|-5s7s5-0-8-0-5s7s5-0-8-0-8-0-|
|-5s7s5-0-8-0-5s7s5-0-8-0-8-0-|-5s7s5-0-8-0-5s7s5-0-8-0-8-0-|


   Chorus
    G5A5G5D5Bb5D5G5A5G5D5Bb5D5Bb5D5  G5A5G5D5Bb5D5G5A5G5D5Bb5D5Bb5D5
    S S E E  E E S S E E  E E  E E   S S E E  E E S S E E  E E  E E  4x
||---------------------------------|---------------------------------||
||o--------------------------------|--------------------------------o||
||----------10-----------10---10---|---------10-----------10---10----||
||--------0----0-------0----0----0-|-------0----0-------0----0----0--||
||o-5s7s5-0--8-0-5s7s5-0--8-0--8-0-|-5s7s5-0--8-0-5s7s5-0--8-0--8-0-o||
||--5s7s5-0----0-5s7s5-0----0----0-|-5s7s5-0----0-5s7s5-0----0----0--||
|
|   S S E E  E E S S E E  E E  E E   S S E E  E E S S E E  E E  E E  4x
||---------------------------------|---------------------------------||
||o--------------------------------|--------------------------------o||
||---------------------------------|---------------------------------||
||--------0--8-0-------0--8-0--8-0-|-------0--8-0-------0--8-0--8-0--||
||o-5s7s5-0--8-0-5s7s5-0--8-0--8-0-|-5s7s5-0--8-0-5s7s5-0--8-0--8-0-o||
||--5s7s5-0--8-0-5s7s5-0--8-0--8-0-|-5s7s5-0--8-0-5s7s5-0--8-0--8-0--||


   Outro
    G5 A5G5 D5 Bb5D5 G5 A5G5 D5 N.C.
     S S  E  E  E  E  S S  E  E  E  E  E  E
||------------------------------------------|
||o-----------------------------------------|
||-------------10---------------10----10----|
||-----------0-----0----------0-----0-----0-|
||o--5s7s=5--0--8--0--5s7s=5--0--8--0--8--0-|
||---5s7s=5--0-----0--5s7s=5--0-----0-----0-|
|
|    S S  E  E  E  E  S S  E  E  E  E  E  E
||------------------------------------------|
||o-----------------------------------------|
||------------------------------10p=0-10p=0-|
||-----------0--8--0----------0-------------|
||o--5s7s=5--0--8--0--5s7s=5--0-------------|
||---5s7s=5--0--8--0--5s7s=5--0-------------|
|
|   Gtr III
|    E    E  E  E  E  E    E  E  E  E  E  E
||--15---15-15-15-15-15---15-15-15-15-15-15-|
||o-19---19-18-19-18-19---19-18-19-18-19-18-|
||------------------------------------------|
||------------------------------------------|
||o-----------------------------------------|
||------------------------------------------|


  G5 A5G5 D5 Bb5D5 G5 A5G5 D5 N.C.
   S S  E  E  E  E  S S  E  E  E  E  E  E
|------------------------------------------||
|-----------------------------------------o||
|------------10---------------10----10-----||
|----------0-----0----------0-----0-----0--||
|--5s7s=5--0--8--0--5s7s=5--0--8--0--8--0-o||
|--5s7s=5--0-----0--5s7s=5--0-----0-----0--||
|
|  S S  E  E  E  E  S S  E  E  E  E  E  E
|------------------------------------------||
|-----------------------------------------o||
|-----------------------------10p=0-10p=0--||
|----------0--8--0----------0--------------||
|--5s7s=5--0--8--0--5s7s=5--0-------------o||
|--5s7s=5--0--8--0--5s7s=5--0--------------||
|
|  E    E  E  E  E  E    E  E  E  E  E  E
|-15---15-15-15-15-15---15-15-15-15-15-15--||
|-19---19-18-19-18-19---19-18-19-18-19-18-o||
|------------------------------------------||
|------------------------------------------||
|-----------------------------------------o||
|------------------------------------------||


  Q=100     H.=H
  Bb5D5Bb5D5Bb5D5Bb5D5  Bb5D5Bb5D5Bb5D5Bb5D5
 4/4
   E E  E E  E E  E E    E E  E E  E E  E E
|---------------------|---------------------|
|---------------------|---------0----0----0-|
|---------------------|---------0----0----0-|
|--8-0--8-0--8-0--8-0-|--8-0--8-0--8-0--8-0-|
|--8-0--8-0--8-0--8-0-|--8-0--8-0--8-0--8-0-|
|--8-0--8-0--8-0--8-0-|--8-0--8-0--8-0--8-0-|
|
|  E E  E E  E E  E E    E E  E E  E E  E E
|---------------------|---------------------|
|---------------------|---------------------|
|-10---10---10---10---|-10---10---10---10---|
|----0----0----0----0-|----0----0----0----0-|
|--8-0--8-0--8-0--8-0-|--8-0--8-0--8-0--8-0-|
|----0----0----0----0-|----0----0----0----0-|


  Bb5D5Bb5D5Bb5D5Bb5D5  Bb5D5Bb5D5Bb5D5Bb5D5
   E E  E E  E E  E E    E E  E E  E E  E E
|---------------------|---------------------|
|----0----0-----------|---------------------|
|----0----0-----------|---------------------|
|--8-0--8-0--8-0--8-0-|--8-0--8-0--8-0--8-0-|
|--8-0--8-0--8-0--8-0-|--8-0--8-0--8-0--8-0-|
|--8-0--8-0--8-0--8-0-|--8-0--8-0--8-0--8-0-|
|
|  E E  E E  E E  E E    E E  E E  E E  E E
|---------------------|---------------------|
|--------------0----0-|----0----0----0----0-|
|-10---10---10-0-10-0-|-10-0-10-0-10-0-10-0-|
|----0----0----0----0-|----0----0----0----0-|
|--8-0--8-0--8-0--8-0-|--8-0--8-0--8-0--8-0-|
|----0----0----0----0-|----0----0----0----0-|


                        Q=40
  Bb5D5Bb5D5Bb5D5Bb5D5  Bb5D5Bb5D5Bb5
                                                    >
   E E  E E  E E  E E    E E  E E  H       +H      +H
|---------------------|-----------------|-----------------*|
|----0----0----0----0-|-----------------|-----------------*|
|----0----0----0----0-|-----------------|-----------------*|
|--8-0--8-0--8-0--8-0-|--8-0--8-0--8----|--(8)-----(8)----*|
|--8-0--8-0--8-0--8-0-|--8-0--8-0--8----|--(8)-----(8)----*|
|--8-0--8-0--8-0--8-0-|--8-0--8-0--8----|--(8)-----(8)----*|
|
|                                                   >
|  E E  E E  E E  E E    E E  E E  H       +H      +H
|---------------------|-----------------|-----------------*|
|----0----0----0----0-|-----------------|-----------------*|
|-10-0-10-0-10-0-10-0-|-10---10---10----|-(10)----(10)----*|
|----0----0----0----0-|----0----0-------|-----------------*|
|--8-0--8-0--8-0--8-0-|--8-0--8-0--8----|--(8)-----(8)----*|
|----0----0----0----0-|----0----0-------|-----------------*|



Duration Legend
---------------
W - whole; H - half; Q - quarter; E - 8th; S - 16th; T - 32nd; X - 64th; a - acciaccatura
+ - note tied to previous; . - note dotted; .. - note double dotted
Uncapitalized letters represent notes that are staccato (1/2 duration)
Irregular groupings are notated above the duration line
Duration letters will always appear directly above the note/fret number it represents the
duration for.  Duration letters with no fret number below them represent rests.  Multi-
bar rests are notated in the form Wxn, where n is the number of bars to rest for.  Low
melody durations appear below the staff

Tablature Legend
----------------
 h   - hammer-on
 p   - pull-off
 b   - bend
 pb  - pre-bend
 r   - bend release (if no number after the r, then release immediately)
 /\  - slide into or out of (from/to "nowhere")
 s   - legato slide
 S   - shift slide
 - natural harmonic
[n]  - artificial harmonic
n(n) - tapped harmonic
 ~   - vibrato
 tr  - trill
 T   - tap
 TP  - trem. picking
 PM  - palm muting
\n/  - tremolo bar dip; n = amount to dip
 \n  - tremolo bar down
 n/  - tremolo bar up
/n\  - tremolo bar inverted dip
 =   - hold bend; also acts as connecting device for hammers/pulls
 <> - volume swell (louder/softer)
 x   - on rhythm slash represents muted slash
 o   - on rhythm slash represents single note slash

Misc Legend
-----------
 |  - bar
||  - double bar
||o - repeat start
o|| - repeat end
*|  - double bar (ending)
 :  - bar (freetime)
 $  - Segno
 &  - Coda
Tempo markers -  = BPM(8/16=s8/s16), where s8 = swing 8ths, s16 = swing 16ths

Добавлено: 27.08.2013
Другие материалы по этой песне:
  • Аккорды и текст

Страница создана 17.03.2012
http://primanota.ru/norma-jean/face-face-chords.htm
Привет, Гость.
Предлагаем пройти революционный курс по гитаре.
Подарок от PrimaNota.Ru, забирай!