PrimaNota.ru - самый крупный в мире бесплатный архив песенных текстов, аккордов, табулатур и нот


Norma Jean - Deathbed Atheist - таба, видео

Регистрация Запомнить меня
Войти через:  Facebook Google Twitter Vk Yandex Mail.ru

Norma Jean - Deathbed Atheist - таба, видео

Печатать
Просмотров: 202
Уроки эстрадного вокала в Санкт-Петербурге
Авторы: Norma Jean

--------------------------------------------------------
		Deathbed Atheist - Norma Jean
--------------------------------------------------------
Tabbed by: Kristyn Lee
Email:  spot_the_village_loony_836@hotmail.com

Tuning:
Guitar 1
eb|------------------------------------------------------|
Bb|------------------------------------------------------|
Gb|------------------------------------------------------|
Db|------------------------------------------------------|
Ab|--00000000000000000000000000000000000000000000000000--|
Db|--00000000000000000000000000000000000000000000000000--|
     ..................................................
0:23
Guitar 2
eb|----------------------------------------------------|
Bb|----------------------------------------------------|
Gb|----------------------------------------------------|
Db|----------------------------------------------------|
Ab|--6-5-3-5-5-5-6-5-3-5-5-5-6-5-3-5-5-5-6-5-3-5-5-5---|
Db|--0-0-0-0-0-0-0-0-0-0-0-0-0-0-0-0-0-0-0-0-0-0-0-0---|
     . . . . . . . . . . . . . . . . . . . . . . . .
0:32
Guitar 1
eb|----------------------------------------------------|
Bb|----------------------------------------------------|
Gb|----------------------------------------------------|
Db|----------------------------------------------------|
Ab|----------------------------------------------------|
Db|---0~----3~----5~----0~----0~----10~----3~----0~----|

0:51
Guitar 1
eb|----------------------------------------------------|
Bb|----------------------------------------------------|
Gb|----------------------------------------------------|
Db|----------------------------------------------------|
Ab|---6p5p3h55---6p5p3h55---6p5p3h55---6p5p3h55--------|
Db|------------0----------0----------0----------0------|
Guitar 2
eb|------------------------------------------------|
Bb|------------------------------------------------|
Gb|------------------------------------------------|
Db|------------------------------------------------|
Ab|---0000-0--0-0-0-3333-0000-0-0-0-0-3333---------|
Db|---0000-0--0-0-0-3333-0000-0-0-0-0-3333---------|
      .... .  . . .      .... . . . .   

1:00 1:09   "lie to me...lie to me..."
Guitar 1
eb|----------------------------------------------------|
Bb|----------------------------------------------------|
Gb|----------------------------------------------------|
Db|----------------------------------------------------|
Ab|---6p5p3h55---6p5p3h55---6p5p3h55---6p5p3h55--------|
Db|------------0----------0----------0----------0------|
Guitar 2
eb|---------------------------|
Bb|---------------------------|
Gb|---------------------------|
Db|---------------------------|
Ab|---0-00--0-0-0-00-3333-----|
Db|---0-00--0-0-0-00-3333-----|
      . ..  . . . .. 
eb|--------------------------------------------|
Bb|--------------------------------------------|
Gb|--------------------------------------------|
Db|--------------------------------------------|
Ab|---0000-0--0-0-0-3333-0000-0-0-0-0-3333-----|
Db|---0000-0--0-0-0-3333-0000-0-0-0-0-3333-----|
      .... .  . . .      .... . . . .

1:20   "take it..."
eb|----------------------------------------------------|
Bb|----------------------------------------------------|
Gb|----------------------------------------------------|
Db|----------------------------------------------------|
Ab|---0000000000333333333355555555550000000000---------|
Db|---0000000000333333333355555555550000000000---------|
      ........................................
1:29
eb|---------------------------------------------|
Bb|---------------------------------------------|
Gb|---------------------------------------------|
Db|---7777777777-5555553333---------------------|
Ab|---5555555555-3333333333---------------------|
Db|---------------------------------------------|
Guitar 2
eb|----------------------------------------------------|
Bb|----------------------------------------------------|
Gb|----------------------------------------------------|
Db|----------------------------------------------------|
Ab|---6p5p3h55---6p5p3h55---6p5p3h55---6p5p3h55--------|
Db|------------0----------0----------0----------0------|

1:33   guitar 1
eb|----------------------------------------------------|
Bb|----------------------------------------------------|
Gb|----------------------------------------------------|
Db|----------------------------------------------------|
Ab|----0000-000-0000-3333-0000-000-0000-3333-----------|
Db|----0000-000-0000-3333-0000-000-0000-3333-----------|
       .... ... ....      .... ... ....
guitar 2
eb|----------------------------------------------------|
Bb|----------------------------------------------------|
Gb|----------------------------------------------------|
Db|----------------------------------------------------|
Ab|---6p5p3h55---6p5p3h55---6p5p3h55---6p5p3h55--------|
Db|------------0----------0----------0----------0------|
1:42  "take it all..."
eb|------------------------------|
Bb|------------------------------|
Gb|------------------------------|
Db|------------------------------|
Ab|---0-00-00-0-00-3333----------|
Db|---0-00-00-0-00-3333----------|
      . .. .. . ..


1:53  "Bury your hands in the sand..."
eb|----------------------------------------------------|
Bb|----------------------------------------------------|
Gb|----------------------------------------------------|x2
Db|----------------------------------------------------|
Ab|---0--5-------8------10--0-5-------3-----8888-------|
Db|---0----7-5p0---10-8-----0---7-5p0---5-3-8888-------|

go back to intro riff then this at 2:16
eb|----------------------------------------------|
Bb|----------------------------------------------|
Gb|----------------------------------------------|
Db|----------------------------------------------|
Ab|---6p5p3h55---6p5p3h55---6p5p3h55---3333------|
Db|------------0----------0----------0-3333------|
2:25  "Bury your hands in the sand..."
eb|----------------------------------------------------|
Bb|----------------------------------------------------|
Gb|----------------------------------------------------|x8
Db|----------------------------------------------------|
Ab|---0--5-------8------10--0-5-------3-----8888-------|
Db|---0----7-5p0---10-8-----0---7-5p0---5-3-8888-------|

2:57
guitar 1
eb|----------------------------------------------------|
Bb|----------------------------------------------------|
Gb|----------------------------------------------------|
Db|----------------------------------------------------|
Ab|---5~----3~----------5~----5~-----------------------|
Db|---------------3~----------------3~----5^~----------|
guitar 2
eb|----------------------------------------------------|
Bb|----------------------------------------------------|
Gb|---------------------7~----7~----5-----2^^^---------|
Db|---------8-7~--8~-----------------------------------|
Ab|----------------------------------------------------|
Db|----------------------------------------------------|
3:16  guitar 1
   "this is my nightmare..."
eb|----------------------------------------------------|
Bb|----------------------------------------------------|
Gb|----------------------------------------------------|x2
Db|----------------------------------------------------|
Ab|----------------------------------------------------|
Db|---0~----3~----5~----0~----0~----10~----3~----0~----|
3:43
guitar 2
eb|----------------------------------------------------|
Bb|----------------------------------------------------|
Gb|----------------------------------------------------|
Db|----------------------------------------------------|
Ab|---6p5p3h55---6p5p3h55---6p5p3h55---6p5p3h55--------|
Db|------------0----------0----------0----------0------|


3:53  "Bury your hands in the sand..."
eb|----------------------------------------------------|
Bb|----------------------------------------------------|
Gb|----------------------------------------------------|
Db|----------------------------------------------------|
Ab|---0--5-------8------10--0-5-------3-----8888-------|
Db|---0----7-5p0---10-8-----0---7-5p0---5-3-8888-------|
guitar 2     played over and over
eb|----------------------------------------------------|
Bb|----------------------------------------------------|
Gb|---15p14-12h14-15p14-12h14--------------------------|
Db|----------------------------------------------------|
Ab|----------------------------------------------------|
Db|----------------------------------------------------|

4:25
eb|----------------------------------------------------|
Bb|----------------------------------------------------|
Gb|----------101010101010------------------------------|
Db|------5/7-8-8-8-8-8-8----7/8---8\7---7--888888------|
Ab|---0--3/5-8-8-8-8-8-8--0-5/6-0-6\5-0-5--888888------|
Db|---0------8-8-8-8-8-8--0-----0-----0----888888------|


eb|----------------------------|
Bb|----------------------------|
Gb|----------------------------|
Db|-----5/7-888888-------------|
Ab|---0-3/5-888888-------------|
Db|---0-----888888-------------|

4:34
eb|-------------------------------------------------|
Bb|-------------------------------------------------|
Gb|-------------------------------------------------|x4
Db|-------------------------------------------------|
Ab|---00000-000-00000-3333-00000-000-00000-3333-----|
Db|---00000-000-00000-3333-00000-000-00000-3333-----|
     
4:52
eb|---------------------------------------------------|
Bb|---------------------------------------------------|
Gb|---------------------------------------------------|
Db|---------------------------------------------------|
Ab|---12\\\\-0000-1p00000-1p00000-1p00000-1p00000-1---|
Db|---12\\\\-0000-1p00000-1p00000-1p00000-1p00000-1---|



************************************

| .    palm Mute
| /   slide up
| \   slide down
| h   hammer-on
| p   pull-off
| ~   vibrato
| +   harmonic
| x   Mute note
| b   Bend
| pb  Pre-bend
| br  Bend release
| pbr Pre-bend release
| brb Bend release bend

************************************
Добавлено: 01.10.2013
Другие материалы по этой песне:
  • Аккорды и текст

Страница создана 01.10.2013
http://primanota.ru/norma-jean/deathbed-atheist-chords.htm
Привет, Гость.
Предлагаем пройти революционный курс по гитаре.
Подарок от PrimaNota.Ru, забирай!