PrimaNota.ru - самый крупный в мире бесплатный архив песенных текстов, аккордов, табулатур и нот


Norma Jean - Amnesty Please - текст песни, таба, видео

Регистрация Запомнить меня
Войти через:  Facebook Google Twitter Vk Yandex Mail.ru

Norma Jean - Amnesty Please - текст песни, таба, видео

Печатать
Просмотров: 147
Уроки эстрадного вокала в Санкт-Петербурге
-------------------------------------------------------------
	 	 Amnesty Please - Norma Jean
-------------------------------------------------------------
Tabbed by: Kristyn Lee
Email: spot_the_village_loony_836@hotmail.com

Tuning: Half step down

Intro
eb|--13-13--13-13----------------12-12--12-----|
Bb|----------------13-13--13-13----------------|
Gb|--------------------------------------------|
Db|--------------------------------------------|
Ab|--------------------------------------------|
Db|--------------------------------------------|

0:04
eb|----------------------------------------13-13-13-----------12-12--|
Bb|--15-15--15-15--15-15--15-15--15-15--15----------12-12--12--------|
Gb|------------------------------------------------------------------|
Db|------------------------------------------------------------------|x3
Ab|------------------------------------------------------------------|
Db|------------------------------------------------------------------|

0:22
eb|-----------------------------------------------------|
Bb|-----------------------------------------------------|
Gb|-----------------------------------------------------|x2
Db|-----------------------------------------------------|
Ab|--0h3p0-3-0---0h3p0-3-0---0h3p0-3-0---0h3p0-3-0------|
Db|--0h3p0-3-0---0h3p0-3-0---0h3p0-3-0---0h3p0-3-0------|

0:35
eb|----------------------------------------13-13-13-----------12-12--|
Bb|--15-15--15-15--15-15--15-15--15-15--15----------12-12--12--------|
Gb|------------------------------------------------------------------|
Db|------------------------------------------------------------------|x2
Ab|------------------------------------------------------------------|
Db|------------------------------------------------------------------|

0:47  x2                                          2nd time end
eb|------------------------------------------------|--------|
Bb|------------------------------------------------|--------|
Gb|------------------------------------------------|--------|
Db|------------------------------------------------|-33333--|
Ab|--0h3p0-3-0---0h3p0-3-0---0h3p0-3-0---0h3p0-3-0-|-11111--|
Db|--0h3p0-3-0---0h3p0-3-0---0h3p0-3-0---0h3p0-3-0-|--------|

0:53   guitar 2
eb|------------------------------------------------|--------|
Bb|------------------------------------------------|--------|
Gb|---10--10------10--10------10--10------10--10---|--------|
Db|---x---x-------x---x-------x---x-------x---x----|-33333--|
Ab|-0-8-0-8-0---0-8-0-8-0---0-8-0-8-0---0-8-0-8-0--|-11111--|
Db|-0---0---0---0---0---0---0---0---0---0---0---0--|--------|

1:03
eb|---------------------|
Bb|---------------------|
Gb|---------------------|x3
Db|---------------------|
Ab|--0--5--3----88888---|
Db|--0--5--3----88888---|

1:12  guitar 2
eb|-----------------------------------------|
Bb|-88888888--11-11-11-11-11-11-11-11-------|
Gb|-----------------------------------------|
Db|-----------------------------------------|
Ab|-----------------------------------------|
Db|-----------------------------------------|

1:21
eb|----------------------------------------|
Bb|----------------------------------------|
Gb|----------------------------------------|
Db|----------------------------------------|
Ab|--0--5--3~------------------------------|
Db|--0--5--3~------------------------------|

some harmonics here, too lazy to tab.

1:35
eb|--------------------------------------|
Bb|--------------------------------------|
Gb|--------------------------------------|
Db|--------------------------------------|
Ab|--00-00-00-00-00-033-33-55-55-55------|
Db|--00-00-00-00-00-033-33-55-55-55------|

1:47
eb|--------------------------------------|
Bb|--------------------------------------|
Gb|-10101010101010/12\9\10---------------|x8
Db|-x-x-x-x-x-x-x--x--x-x----------------|
Ab|-8-8-8-8-8-8-8-/10\7/8----------------|
Db|--------------------------------------|

2:22
eb|-----------------------------------------------------|
Bb|-----------------------------------------------------|
Gb|-----------------------------------------------------|x2
Db|-----------------------------------------------------|
Ab|--0h3p0-3-0---0h3p0-3-0---0h3p0-3-0---0h3p0-3-0------|
Db|--0h3p0-3-0---0h3p0-3-0---0h3p0-3-0---0h3p0-3-0------|

eb|------------------------|
Bb|---8p5-8p5-8p5-8p5------|
Gb|------------------------|
Db|------------------------|
Ab|------------------------|
Db|------------------------|

2:34
eb|-------------------------------------|
Bb|-------------------------------------|
Gb|-------------------------------------|x4
Db|-3333333333333333--------------------|
Ab|-1111111111111111--0--5--3-----------|
Db|-------------------0--5--3-----------|

eb|-------------------------------|
Bb|-10-10-10-10-10-10/11\8-/10----|
Gb|-13-13-13-13-13-13/14\11/13----|
Db|-------------------------------|x4
Ab|-------------------------------|
Db|-------------------------------|

eb|-----------------------|
Bb|-----------------------|
Gb|-----------------------|
Db|---------3-6--6\3/6----|
Ab|--8-5-4--1-4--4\1/4----|
Db|--8-5-4----------------|

Breakdown
eb|---------------------------|
Bb|-----------------10^-------|
Gb|-----------------13^-------|
Db|---------------------------|x4
Ab|--0-0-0-00-0-00------------|
Db|--0-0-0-00-0-00------------|
     . . . .. . ..
eb|---------------------------|
Bb|---------------------------|
Gb|---------------------------|
Db|---------------------------|x4
Ab|--0-0-0-00-0-8-3-6---------|
Db|--0-0-0-00-0-8-3-6---------|
     . . . .. .
eb|---------------------------|
Bb|---------------------------|
Gb|---------------------------|
Db|---------------------------|x4
Ab|--0-0-0-000-0-00--10^------|
Db|--0-0-0-000-0-00-----------|
     . . . ... . ..

End
eb|-----------------------|
Bb|-----------------------|
Gb|-----------------------|
Db|---------3-6-----------|
Ab|--8-5-4--1-4-----------|
Db|--8-5-4----------------|



| .  palm mute
| /  slide up
| \  slide down
| h  hammer-on
| p  pull-off
| ~  vibrato
| +  harmonic
| x  Mute note
=============================================================
Добавлено: 20.08.2013
Другие материалы по этой песне:
  • Аккорды и текст

Страница создана 03.04.2012
http://primanota.ru/norma-jean/amnesty-please-chords.htm
Привет, Гость.
Предлагаем пройти революционный курс по гитаре.
Подарок от PrimaNota.Ru, забирай!