PrimaNota.ru - самый крупный в мире бесплатный архив песенных текстов, аккордов, табулатур и нот


New Found Glory - Connected - текст песни, таба, видео

Регистрация Запомнить меня
Войти через:  Facebook Google Twitter Vk Yandex Mail.ru

New Found Glory - Connected - текст песни, таба, видео

Печатать
Просмотров: 83
Standard Tuning

Intro/Bridge
Guitar 1
e-------2-----------2---------2---|
b-----3---3-------3---3---------3-| repeat
g-0-4-------4-0-4-------4-0-4-----| several
d---------------------------------| times
a---------------------------------|
e---------------------------------|

Guitar 2
e----------------------------------------------------|
b----------------------------------------------------|
g-777777777777-4444-11111111111111111111111111111111-|  2x
d-xxxxxxxxxxxx-xxxx--x-x-x-x-x-x-x-x-x-x-x-x-x-x-x-x-|
a-555555555555-2222--9-9-9-9-9-9-9-9-9-9-9-9-9-9-9-9-|
e----------------------------------------------------|

Verse (Kinda hard to hear the guitar part.  But this sounds pretty close)
e------------------------------------------------------------------|
b------------------------------------------------------------------|
g------------------------------------------------------------------|
d---------5---------------5----------------4---------------4-------|
a-----5-----5---5-----5-----5---5------2-----2---2-----2-----2---2-|
e-3-3---3-----3---3-3---3-----3----0-0---0-----0---0-0---0-----0---|

Pre-Chorus
Guitar 1
e------------------------------------------------------------------|
b------------------------------------------------------------------|
g------------------------------------------------------------------|
d---------5---------------5----------------4---------------4-------|
a-----5-----5---5-----5-----5---5------2-----2---2-----2-----2---2-|
e-3-3---3-----3---3-3---3-----3----0-0---0-----0---0-0---0-----0---|

e------------------------------------------------------------------|
b------------------------------------------------------------------|
g--------------------------------------------------5-5-5-5-5-5-5-5-|
d---------5---------------5----------------4-------5-5-5-5-5-5-5-5-|
a-----5-----5---5-----5-----5---5------2-----2---2-3-3-3-3-3-3-3-3-|
e-3-3---3-----3---3-3---3-----3----0-0---0-----0-------------------|

Guitar 2
e----------------------------------------------------|
b----------------------------------------------------|
g-777777777777-4444-11111111111111111111111111111111-|
d-xxxxxxxxxxxx-xxxx--x-x-x-x-x-x-x-x-x-x-x-x-x-x-x-x-|
a-555555555555-2222--9-9-9-9-9-9-9-9-9-9-9-9-9-9-9-9-|
e----------------------------------------------------|

e-----------------------------------------------------|
b-----------------------------------------------------|
g-777777777777-4444-1111111111111111-1212121212121212-|
d-xxxxxxxxxxxx-xxxx--x-x-x-x-x-x-x-x--x-x-x-x-x-x-x-x-|
a-555555555555-2222--9-9-9-9-9-9-9-9-1010101010101010-|
e-----------------------------------------------------|


Chorus
e-------------------------------------|
b-------------------------------------|
g----------55555555-44444444-77777777-| 2x
d-55555555-55555555-44444444-77777777-|
a-55555555-33333333-22222222-55555555-|
e-33333333----------------------------|

e------------------------------------------------------|
b------------------------------------------------------|
g----------55555555-------------------5555555555555555-|
d-22222222-55555555-55555555-44444444-5555555555555555-|
a-22222222-33333333-55555555-44444444-3333333333333333-|
e-00000000----------33333333-22222222------------------|

That's basically it.  Know when to play which part.
Добавлено: 05.07.2013
Другие материалы по этой песне:

Страница создана 20.06.2013
http://primanota.ru/new-found-glory/connected-chords.htm
Привет, Гость.
Предлагаем пройти революционный курс по гитаре.
Подарок от PrimaNota.Ru, забирай!