PrimaNota.ru - самый крупный в мире бесплатный архив песенных текстов, аккордов, табулатур и нот


New Found Glory - Trainwreck - текст песни, таба, бас-таба, видео

Регистрация Запомнить меня
Войти через:  Facebook Google Twitter Vk Yandex Mail.ru

New Found Glory - Trainwreck - текст песни, таба, бас-таба, видео

Печатать
Просмотров: 68
------------------------------------------------------------------------------
                        TRAINWRECK - NEW FOUND GLORY
------------------------------------------------------------------------------

Tabbed by : Boris Paskhaver (bigbadb)
Email     : bp771@nyu.edu

Tuning: Standard 

MAIN RIFF / VERSE ONE (0:05)
 
  (x3)
e|-------------------------------------|-------------------------------------|
B|-------------------------------------|-------------------------------------|
G|-------------------------------------|-------------------------------------|
D|--4--------1h2-4---2-----1-----------|---4---------1h2-4--2--2--2--2-2-----|
A|--2--x-2h4---------2--x-----4--2--1--|---2--x-2h4---------2--2--2--2-2-----|
E|-------------------0-----------------|--------------------0--0--0--0-0-----|

  (x2)
e|------------------------------------|--------------------------------------|
B|------------------------------------|--------------------------------------|
G|------------------------------------|--------------------------------------|
D|--4-------1-2-4----2-----1----------|---4-------1-2-4---2---2---2--2-2-----|
A|--2-2-2-4----------2-------4--2--1--|---2-2-2-4---------2---2---2--2-2-----|
E|-------------------0-0-0------------|-------------------0---0---0--0-0-----|
      P.M--------|     P.M----------|       P.M--------|

CHORUS ONE (0:44)

  (x1)
e|---------------------------------------------------------------------------|
B|---------------------------------------------------------------------------|
G|--4--4-4------------------------------4--4-4----6--6-6---------------------|
D|--4--4-4----4--4-4----2--2-2--4--4-4--4--4-4----6--6-6----2--2-2--4--4-4---|
A|--2--2-2----4--4-4----2--2-2--4--4-4--2--2-2----4--4-4----2--2-2--4--4-4---|
E|------------2--2-2----0--0-0--2--2-2----------------------0--0-0--2--2-2---|
 1  Love is   like a    trainwreck       alive     still     made it so

e|---------------------------------------------------------------------------|
B|---------------------------------------------------------------------------|
G|--4--4-4------------------------------4--4-4-------------------------------|
D|--4--4-4----4--4-4----2--2-2--4--4-4--4--4-4----4--4-4----2-2-2-2--2-2-----|
A|--2--2-2----4--4-4----2--2-2--4--4-4--2--2-2----4--4-4----2-2-2-2--2-2-----|
E|------------2--2-2----0--0-0--2--2-2------------2--2-2----0-0-0-0--0-0-----|
 1   Truth     know      do so tell me   truth     know    do to me do you?

VERSE TWO (0:59)

  (x1)
e|------------------------------------|--------------------------------------|
B|------------------------------------|--------------------------------------|
G|------------------------------------|--------------------------------------|
D|--4--------1h2-4---2-----1----------|---4---------1h2-4--2--2--2--2-2------|
A|--2--x-2h4---------2--x----4--2--1--|---2--x-2h4---------2--2--2--2-2------|
E|-------------------0----------------|--------------------0--0--0--0-0------|
 1        I'll say        whatever's     mind             time, whatever

e|------------------------------------|--------------------------------------|
B|------------------------------------|--------------------------------------|
G|------------------------------------|--------------------------------------|
D|--4-------1-2-4----2-----1----------|---4-------1-2-4---2---2---2----------|
A|--2-2-2-4----------2-------4--2--1--|---2-2-2-4---------2---2---2----------|
E|-------------------0-0-0------------|-------------------0---0---0----------|
      P.M--------|     P.M----------|       P.M--------|
 1        I'll be   the  capital         of whatever 

CHORUS TWO (1:15)

  (x2)
e|---------------------------------------------------------------------------|
B|---------------------------------------------------------------------------|
G|--4--4-4------------------------------4--4-4----6--6-6---------------------|
D|--4--4-4----4--4-4----2--2-2--4--4-4--4--4-4----4--4-4----2--2-2--4--4-4---|
A|--2--2-2----4--4-4----2--2-2--4--4-4--2--2-2----4--4-4----2--2-2--4--4-4---|
E|------------2--2-2----0--0-0--2--2-2----------------------0--0-0--2--2-2---|
 1  Love is   like a    trainwreck     alive      still    made it so
 2  Truth     know      do so tell me   truth     know      do to me do you?

  (x1)
e|------------------------------------|
B|------------------------------------|
G|--4--4-4----6--6-6------------------|
D|--4--4-4----6--6-6----2-2-2-2--2-2--|
A|--2--2-2----4--4-4----2-2-2-2--2-2--|
E|----------------------0-0-0-0--0-0--|
 1  You don't know      putting

BRIDGE (1:33)

  (x3)
e|------------------------------------------------------------|
B|------------------------------------------------------------|
G|--8-----------8----------------9-----------9----------------|
D|--8--x-x-x-x--8--  LET RING  --9--x-x-x-x--9--  LET RING  --|
A|--6--x-x-x-x--6----------------7--x-x-x-x--7----------------|
E|-----x-x-x-x----------------------x-x-x-x-------------------|
 1   Finding it                  finding it hard
 2   Keep it all                 breaking all
 3   Finding it

  (x2)                                
e|-----------------------------------|
B|-----------------------------------|
G|-----------------------------------|
D|--6-6-6-6-4-4-4-4-2-2-2-2-2-2-2-2--|
A|--6-6-6-6-4-4-4-4-2-2-2-2-2-2-2-2--|
E|--4-4-4-4-2-2-2-2-0-0-0-0-0-0-0-0--|
 1  Good,    good    said you would
 2  Wrapped  tight   said you would

  (x1)                                
e|----------------------|
B|----------------------|
G|----------------------|
D|--4--4-4-4-4-4-4-4-4--|
A|--4--4-4-4-4-4-4-4-4--|
E|--2--2-2-2-2-2-2-2-2--|
       P.M------------|
 1  Worst has

INTRO RIFF (1:55)

  (x1)
e|-------------------------------------|-------------------------------------|
B|-------------------------------------|-------------------------------------|
G|-------------------------------------|-------------------------------------|
D|--4--------1h2-4---2-----1-----------|---4---------1h2-4--2--2--2--2-2-----|
A|--2--x-2h4---------2--x-----4--2--1--|---2--x-2h4---------2--2--2--2-2-----|
E|-------------------0-----------------|--------------------0--0--0--0-0-----|
 1               I'll feel how you want me feel,     I'll say the

  (x1) Lead continues playing riff while rhythm does this
e|---------------------------------------------------------------------------|
B|---------------------------------------------------------------------------|
G|--4-------------------------------------4-4-4-4-4-4-4-4--------------------|
D|--4--  LET RING  --2--------------------4-4-4-4-4-4-4-4-2-2-2-2-2-2-2-2----|
A|--2----------------2--  LET RING  ------2-2-2-2-2-2-2-2-2-2-2-2-2-2-2-2----|
E|-------------------0------------------------------------0-0-0-0-0-0-0-0----|
                                          P.M----------------------------|
 1  say,  I'll be a tell it all          original, I'll be nothing at all

FINAL CHORUS (2:10)

e|---------------------------------------------------------------------------|
B|---------------------------------------------------------------------------|
G|--4--4-4------------------------------4--4-4----6--6-6---------------------|
D|--4--4-4----4--4-4----2--2-2--4--4-4--4--4-4----6--6-6----2--2-2--4--4-4---|
A|--2--2-2----4--4-4----2--2-2--4--4-4--2--2-2----4--4-4----2--2-2--4--4-4---|
E|------------2--2-2----0--0-0--2--2-2----------------------0--0-0--2--2-2---|
 1  Love is   like a    trainwreck      alive      still    made it so

e|---------------------------------------------------------------------------|
B|---------------------------------------------------------------------------|
G|--4--4-4------------------------------4--4-4----6--6-6---------------------|
D|--4--4-4----4--4-4----2--2-2--4--4-4--4--4-4----6--6-6----2-2-2-2--2-2-----|
A|--2--2-2----4--4-4----2--2-2--4--4-4--2--2-2----4--4-4----2-2-2-2--2-2-----|
E|------------2--2-2----0--0-0--2--2-2----------------------0-0-0-0--0-0-----|
 1  Truth     know      do so tell me   truth     know      do to me do you?

  (x2)
e|---------------------------------------------------------------------------|
B|---------------------------------------------------------------------------|
G|--4--4-4------------------------------4--4-4----6--6-6---------------------|
D|--4--4-4----4--4-4----2--2-2--4--4-4--4--4-4----6--6-6----2--2-2--4--4-4---|
A|--2--2-2----4--4-4----2--2-2--4--4-4--2--2-2----4--4-4----2--2-2--4--4-4---|
E|------------2--2-2----0--0-0--2--2-2----------------------0--0-0--2--2-2---|
 1  Love is   like a    trainwreck      alive      still    made it so
 2  Truth     know      do so tell me   truth     know      do to me do you?

e|----------------------------------------------------------|
B|----------------------------------------------------------|
G|--4--4-4------------------------------4-------------------|
D|--4--4-4----4--4-4----2--2-2----------4--  LET RING  -----|
A|--2--2-2----4--4-4----2--2-2----------2-------------------|
E|------------2--2-2----0--0-0------------------------------|
 1   original           nothing at all
Добавлено: 07.07.2013
Другие материалы по этой песне:
  • Аккорды и текст

Страница создана 07.07.2013
http://primanota.ru/new-found-glory/trainwreck-chords.htm
Привет, Гость.
Предлагаем пройти революционный курс по гитаре.
Подарок от PrimaNota.Ru, забирай!