PrimaNota.ru - самый крупный в мире бесплатный архив песенных текстов, аккордов, табулатур и нот


New Found Glory - Over Again - текст песни, таба, видео

Регистрация Запомнить меня
Войти через:  Facebook Google Twitter Vk Yandex Mail.ru

New Found Glory - Over Again - текст песни, таба, видео

Печатать
Просмотров: 90
-----------------------------------------------------------------
New Found Glory - Over Again
-----------------------------------------------------------------
Tabbed by: Bair
Email: bair_morritt@hotmail.com

Tuning: Standard

Verse:
e|------------------------------------------------|
B|------------------------------------------------|
G|--666666-8--666666-10-8--666666-8--666----6666--|
D|--666666-8--666666-10-8--666666-8--666-66-6666--| (X3)
A|--444444-6--444444-8--6--444444-6--444-66-4444--|
E|---------------------------------------44-------|
"I've been here before. I've heard all these words"

Pre-Chorus:
e|------------------------------------------|
B|------------------------------------------|
G|------------------------------------------|
D|--88888888--66666666--88888888--66666666--|
A|--88888888--66666666--88888888--66666666--|
E|--66666666--44444444--66666666--44444444--|
"You finally notice that I was sneaking..."

Chorus:
e|-----------------------------------------------------|
B|-----------------------------------------------------|
G|--6-----------6-----------6-----------6------6-8-10--|
D|--6-6-444444--6-6-444444--6-6-444444--6-66-4-6-8-10--|
A|--4-6-444444--4-6-444444--4-6-444444--4-66-4-4-6-8---|
E|----4-222222----4-222222----4-222222----44-2---------|
"Over again. Over again. Over again. You knew that..."

Then: Verse

Pre-Chorus 2:
e|------------------------------------------|
B|------------------------------------------|
G|------------------------------------------|
D|--88888888--66666666--88888888--66666666--|
A|--88888888--66666666--88888888--66666666--|
E|--66666666--44444444--66666666--44444444--|
"Can you tell me if there's any chance..."

e|------------------------------------------|
B|------------------------------------------|
G|------------------------------------------|
D|--88888888--66666666--44444444--66666666--|
A|--88888888--66666666--44444444--66666666--|
E|--66666666--44444444--22222222--44444444--|
"Can you tell yourself to open up this time"

Then: Chorus

Bridge:
e|---------------------------------------------|
B|---------------------------------------------|
G|--10-10-10-11------13-13-13-13--13-13-13-13--|
D|--10-10-10-11-(X3)-13-13-13-13--13-13-13-13--| (X2)
A|--8--8--8--9-------11-11-11-11--11-11-11-11--|
E|---------------------------------------------|
"I wish I could go back to when it was good..."

e|---------------------------------------|
B|---------------------------------------|
G|--66666666-----------------------------|
D|--66666666-66666666-44444444-66666666--|
A|--44444444-66666666-44444444-66666666--|
E|-----------44444444-22222222-44444444--|
"I know every line that's on your face"

Then: Verse
Then: Chorus (X2)

Outro:
e|------------------------------------|
B|------------------------------------|
G|--6------6-8-10-------6-------6666--|
D|--6-66-4-6-8-10-(X3)--6-4-444-6666--|
A|--4-66-4-4-6-8--------4-4-444-4444--|
E|----44-2----------------2-222-------|
                      "Gonna have to..."

Lyrics
---------------------------------------------------------

I've been here before
I've heard all these words
You need a new plan
Gonna have to do better to get to my heart

You used to love
You love the staring eyes
I don't see them
Gonna have to do better to get to my heart

You finally notice that I was
Sneaking slowly inside your head
Did you know that it was
Just me falling for you

Over again
Over again
Over again
You knew that I was falling for you
Over again

I wrote you songs
I sent you letters
Gave you my records

Gonna have to do better to get to my heart

Gave you my soul
Spent all my time
It doesn't matter
Gonna have to do better to get to my heart

Can you tell me if there's any
Chance of you fitting me in really leave me alone
Standing there waiting again
Can you tell yourself to open up this time
Maybe give me one more shot no hands to block me from falling

Over again
Over again
Over again
You knew that I was falling for you
Over again

I wish I could go back to when it was good
You don't remember the things that you should

(I know every line that's on your face)
(You'll never look at you the further you move away)

I wrote you songs
I sent you letters
Gave you my records

Yeah

Again

Over again
Over again
You knew that I was falling for you
Over again
Yeah
Over again
Over again
You knew that I was falling for you
Over again
Gonna have to do better to get to my heart
Добавлено: 19.09.2013
Другие материалы по этой песне:
  • Аккорды и текст

Страница создана 19.09.2013
http://primanota.ru/new-found-glory/over-again-chords.htm
Привет, Гость.
Предлагаем пройти революционный курс по гитаре.
Подарок от PrimaNota.Ru, забирай!