PrimaNota.ru - самый крупный в мире бесплатный архив песенных текстов, аккордов, табулатур и нот


New Found Glory - 47 - текст песни, таба, видео

Регистрация Запомнить меня
Войти через:  Facebook Google Twitter Vk Yandex Mail.ru

New Found Glory - 47 - текст песни, таба, видео

Печатать
Просмотров: 95
Song:47
Album:Not Without a Fight
Artist:New Found Glory
Date Tabbed:February,2009
Guitar Tabber:Ryan Manongdo/18/Vancouver, Ca
              rhyezkie@gmail.com(gmail>alk)
              no_falter0x@yahoo.com(facebook,myspace,frndster,&YM)

For any comments, questions, or suggestions; just post a comment,PM, or mail me.

Pilipino Rules!!Mabuhay ang Pilipinas\m/,

Please check out my band's profile as well=)

http://artists.ultimate-guitar.com/renovationunder/


Gtr.Legends:
/ - slide
x - scratching
. - palm muting

Gtr.Tuning:(Standard)

Intro:
Gtr.1
e|---------------------------------|
B|---------------------------------|
G|-55---55----55----22---22---22---| 2x
D|-55---55----55----22---22---22---|
A|-33---33----33----00---00---00---|
E|---------------------------------|
   ..   ..    ..    ..   ..   ..

Gtr.2
e|----00-----00------0-----------------------|
B|----11-----11------1------00-----00----0---|
G|----00-----00------0------00-----00----0---| 2x
D|--------------------------22-----22----2---|
A|-33-----33------33-----00-----00-----00----|
E|-------------------------------------------|
   ..     ..      ..     ..     ..     ..

Verse 1:
Gtr.1:Play Intro

Gtr.2 Enters:Play Intro

Chorus:
e|----------------------------      ---------------|
B|----------------------------      ---------------|
G|------------2222-555-77-55-- 3x   -------77777---|
D|-3333-5555--2222-555-77-55-- then -33333-77777---|
A|-3333-5555--0000-333-55-33--      -33333-55555---|
E|-1111-3333------------------      -11111---------|

Verse 2: 
Play Intro

Repeat Chorus:

Bridge prt.1
e|------------------|
B|------------------|
G|------5---5-------| 4x
D|-5555-5-x-5-5-6---|
A|-3333-3-x-3-3-6---|
E|--------------4---|
   ....

Bridge prt.2
e|-----------------------------------|
B|-----------------------------------|
G|-----------------------------------|
D|-55-5-55-5-55-5/7---33-3-33-33-3---| 4x
A|-55-5-55-5-55-5/7---33-3-33-33-3---|
E|-33-3-33-3-33-3/5---11-1-11-11-1---|

Repeat Chorus:

Pre-Outro Verse:
e|-------------|
B|-------------|
G|------7777---| 3x
D|-3333-7777---|
A|-3333-5555---|
E|-1111--------|

Outro Verse:
Play Intro

End...


Добавлено: 05.07.2013
Другие материалы по этой песне:
  • Аккорды и текст

Страница создана 05.07.2013
http://primanota.ru/new-found-glory/47-chords.htm
Привет, Гость.
Предлагаем пройти революционный курс по гитаре.
Подарок от PrimaNota.Ru, забирай!