PrimaNota.ru - самый крупный в мире бесплатный архив песенных текстов, аккордов, табулатур и нот


New Found Glory - Sadness - текст песни, таба, видео

Регистрация Запомнить меня
Войти через:  Facebook Google Twitter Vk Yandex Mail.ru

New Found Glory - Sadness - текст песни, таба, видео

Печатать
Просмотров: 70
-----------------------------------------------------------------
New Found Glory - Sadness
-----------------------------------------------------------------
Tabbed by: Bair
Email: bair_morritt@hotmail.com

Tuning: Standard

Intro:
e|------------------------------------------|
B|------------------------------------------|
G|--5x-2xx-7------5x-2xx--7777--------------|
D|--5x-2xx-7-5xx--5x-2xx--7777--5555--------| (X2)
A|--3x-0xx-5-5xx--3x-0xx--5555--5555--------|
E|-----------3xx----------------3333--------|

Main Riff:
e|------------------------------------------|
B|--5-------5-6-5----5-------------5--------|
G|----7-5-7-------7----7-5-7-4-6-7----------|
D|------------------------------------------| (X2)
A|------------------------------------------|
E|------------------------------------------|

Verse:
e|------------------------------------------|
B|------------------------------------------|
G|--55xx--22xx--77xx------------------------|
D|--55xx--22xx--77xx--55xx--(X4)------------|
A|--33xx--00xx--55xx--55xx------------------|
E|--------------------33xx------------------|
"I'm not good enough, I'm just clearing...."

Pre Chorus:
e|--------------------------------------|
B|--------------------------------------|
G|--------------------------------------|
D|--7777777x--5555555x--33x33x33x33x-5--| (X2)
A|--7777777x--5555555x--33x33x33x33x-5--|
E|--5555555x--3333333x--11x11x11x11x-3--|
"But I won't get caught up...."

Chorus:
e|------------------------------------------|
B|------------------------------------------|
G|--5555--7777------------------------------|
D|--5555--7777--3333--5555-(X3)-33-3--55-5--|
A|--3333--5555--3333--5555------33-3--55-5--|
E|--------------1111--3333------11-1--33-3--|
"I know a thing, know a thing about...."

Then: Main Riff/ Intro
Then: Verse
Then: Pre-Chorus
Then: Chorus

Bridge:  Silent then enter.
e|------------------------------------------|
B|------------------------------------------|
G|--55xx--22xx--77xx------------------------|
D|--55xx--22xx--77xx--55xx--(X6)------------|
A|--33xx--00xx--55xx--55xx------------------|
E|--------------------33xx------------------|
"My eyes close, don't know what I'm...."

Then: Chourus (X2)


______________________________________________________________
Lyrics:


I'm not good enough I'm just clearing that up 
Call me curious and I wont blame you for trying to cut me out 
Your head is full of doubt my mouth is full of blood 

And no one down 

But I would get caught up on how it used to be 
And find you leaving would drive me crazy 
I wont get cut off following your lead 
If half of the world comes crashing down on me 

I know a thing know a thing about sadness 
I know how it feels how it feels to be alone 
Just hold me tight yeah your the thorn in my side 
Till you go through it yourself you'll never know 

I'm not good enough I'll just 
Spare you the details I'm making up 
And I wont need you to ever come around 
Here your everything I fear 
The criminal stealing all my hope 

But I wont get caught up on how it used to be 
To find you leaving would drive me crazy 
I wont get caught up following your lead 
And even if I do you will only tell me 

I know a thing know a thing about sadness 
Know how it feels how it feels to be alone 
Just hold me tight yeah your the thorn in my side 
Till you go through it yourself you'll never know 

My heart sinks down in to my stomach 
It's the taste of the end even if I don't want it 
My eyes close don't know what I'm becoming 
Just a shadow of the person that I was before 

You can use my bones 
You can use my bones 
If you want to put me back together again 

I know a thing know a thing about sadness 
Know how it feels how it feels to be alone 
Just hold me tight yeah your the thorn in my side 
Till you go through it yourself you'll never know 

I know a thing know a thing about sadness 
I know a thing know a thing about sadness
Добавлено: 15.08.2013
Другие материалы по этой песне:
  • Аккорды и текст

Страница создана 15.08.2013
http://primanota.ru/new-found-glory/sadness-chords.htm
Привет, Гость.
Предлагаем пройти революционный курс по гитаре.
Подарок от PrimaNota.Ru, забирай!