PrimaNota.ru - самый крупный в мире бесплатный архив песенных текстов, аккордов, табулатур и нот


Neck Deep - Rain In July A History Of Bad Decisions (album) - бас-таба, видео

Регистрация Запомнить меня
Войти через:  Facebook Google Twitter Vk Yandex Mail.ru

Neck Deep - Rain In July A History Of Bad Decisions (album) - бас-таба, видео

Печатать
Просмотров: 36
Neck Deep - Rain in July / A History of Bad Decisions (2014)

Tabbed by: Ash (XxThreeCheersxX)
E-mail: burdickash@gmail.com

Tuning: Drop C (CGCD)

Notes: All of these songs are all tabbed by ear by me, and are also posted individually on this site.  
Do not steal them.  They are all based off of the 2014 versions.  Happy playing!

TRACKLIST
1. Kick It
2. Silver Lining
3. What Did You Expect
4. Over and Over
5. A Part of Me
6. I Couldn't Wait To Leave 6 Months Ago
7. All Hype No Heart
8. Up in Smoke
9. Tables Turned
10. Head to the Ground




1. KICK IT

Intro
F|-----------------------------------------------------------------|
C|-----------------------------------------------------------------|
G|-----------------------------------------------------------------|
C|-1-1----1-8----6~----------------1-1----1-8----6~--------6-5-6-5-|

F|-----------------------------------------------------------------|
C|-----------------------------------------------------------------|
G|-----------------------------------------------------------------|
C|-1-1----1-8----6~----------------8-8----8-8----6~----------------|

F|---------------------------------------------------------------|
C|---------------------------------------------------------------|
G|---------------------------------------------------------------|
C|-1-1----1-8----6----6-6-6-6-6-6-6-1-1--1-8--6----6-6-6-6-5-6-5-|

F|---------------------------------------------------------------|
C|---------------------------------------------------------------|
G|---------------------------------------------------------------|
C|-1-1----1-8----6----6-6-6-6-6-6-6-8-8--8-8--6----6-6-6-6-6-6-6-|

Verse
F|---------------------------------------------------------------|
C|---------------------------------------------------------------|
G|---------------------------------------------------------------|
C|-1-1----1-8----6----6-6-6-6-6-6-6-1-1--1-8--6----6-6-6-6-5-6-5-|

F|---------------------------------------------------------------|
C|---------------------------------------------------------------|
G|---------------------------------------------------------------|
C|-1-1----1-8----6----6-6-6-6-6-6-6-8-8--8-8--6----6-6-6-6-6-6-6-|

"but I'll never know where I stand" (faster)
F|---------------------------------------------------------------|
C|---------------------------------------------------------------|
G|-3--3-3-3-3-3-3-3-3-3-3-3-3-3-3-1--1-1-1-1-1-1-1-1-1-1-1-1-1-1-|
C|---------------------------------------------------------------|
                                                                        x 2
F|---------------------------------------------------------------|
C|---------------------------------------------------------------|
G|---------------------------------------------------------------|
C|-5--5-5-5-5-5-5-5-5-5-5-5-5-5-5-6--6-6-6-6-6-6-6-6-6-6-6-6-6-6-|

"And in the end we're all just learning curves"
F|-------------------------------------------------------------------------------------------------|
C|-------------------------------------------------------------------------------------------------|
G|-3--3--3--3--3--3--3--3--3--3--3--3--3--3--3--3--1--1--1--1--1--1--1--1--1--1--1--1--1--1--1--1--|
C|-------------------------------------------------------------------------------------------------|

F|----------------------------------------------------------------------------------------------|
C|----------------------------------------------------------------------------------------------|
G|----------------------------------------------------------------------------------------------|
C|-5----5----5----5--5--5--5--5--5--5--5--5--5--6--6--6--6--6--6--6--6--6--6--6--6--6--6--6--6--|

F|-------------------------------------------------|
C|-------------------------------------------------|
G|-------------------------------------------------|
C|-6~----------------------------------------------|




2. SILVER LINING

Intro
F|------------------------------------------------------------------|
C|------------------------------------------------------------------|
G|------------------------------------------------------------------|
C|-6~--------------4~---------------2~--------------4~--------------|

F|-----------------------------------------------------------------|
C|-----------------------------------------------------------------|
G|-----------------------------------------------------------------|
C|-6-6-6-6-6-6-6-6-6-6-6-6-6-6-6-6-4-4-4-4-4-4-4-4-4-4-4-4-4-4-4-4-|

F|-----------------------------------------------------------------|
C|-----------------------------------------------------------------|
G|-----------------------------------------------------------------|
C|-2-2-2-2-2-2-2-2-2-2-2-2-2-2-2-2-4-4-4-4-4-4-4-4-4-4-4-4-4-4-4-4-|

Verse x 2
F|---------------------------------------------------------------|
C|---------------------------------------------------------------|
G|---------------------------------------------------------------|
C|-6--6-6-6-6-6-6-6-6-6-6-6-6-6-6-4--4-4-4-4-4-4-4-4-4-4-4-4-4-4-|

F|---------------------------------------------------------------|
C|---------------------------------------------------------------|
G|---------------------------------------------------------------|
C|-2--2-2-2-2-2-2-2-2-2-2-2-2-2-2-4--4-4-4-4-4-4-4-4-4-4-4-4-4-4-|

Pre-Chorus
F|------------------------------------------------------------------------------------|
C|------------------------------------------------------------------------------------|
G|------------------------------------------------------------------------------------|
C|-6----8----9----4--2~----------------6----8----9----4--2~-------4----4----4---------|

Chorus x 2
F|-----------------------------------------------------------------|
C|-----------------------------------------------------------------|
G|-----------------------------------------------------------------|
C|-6-6-6-6-6-6-6-6-6-6-6-6-6-6-6-6-9-9-9-9-9-9-9-9-9-9-9-9-9-9-9-9-|

F|-----------------------------------------------------------------|
C|-----------------------------------------------------------------|
G|-----------------------------------------------------------------|
C|-4-4-4-4-4-4-4-4-4-4-4-4-4-4-4-4-2-2-2-2-2-2-2-2-2-2-2-2-2-2-2-2-|

Verse x 2 (there's a break before you repeat for the second time)

Pre-Chorus II
F|--------------------------------------------------------------------------|
C|--------------------------------------------------------------------------|
G|--------------------------------------------------------------------------|
C|-6----8----9----4--2~----------------6----8----9----4--2~-------4~--------|

Bridge x 4
F|-------------------------------------------|
C|-------------------------------------------|
G|-------------------------------------------|
C|-2-2----2-2----2-2----2-2----4-4----6-6----|

Chorus x 2

Outro
F|------------------------------------------------------------|
C|------------------------------------------------------------|
G|------------------------------------------------------------|
C|-6---4------2-2-2-2------2~---------------------------------|




3. WHAT DID YOU EXPECT

Verse I
F|-----------------------------------------------------------------|
C|-----------------------------------------------------------------|
G|-----------------------------------------------------------------|
C|-0-0-0-0-0-0-0-0-0-0-0-0-0-0-0-0-0-0-0-0-0-0-0-0-0-0-0-0-0-0-0-0-|

F|-----------------------------------------------------------------|
C|-----------------------------------------------------------------|
G|-----------------------------------------------------------------|
C|-5-5-5-5-5-5-5-5-5-5-5-5-5-5-5-5-5-5-5-5-5-5-5-5-5-5-5-5-5-5-5-5-|

F|---------------------------------------------------------------------------------|
C|---------------------------------------------------------------------------------|
G|---------------------------------------------------------------------------------|
C|-0-0-0x----0-0-0x----0-0-0x----0-0-0x----0-0-0x----0-0-0x----0-0-0x----0-0-0x----|

F|-------------------------------------------------------------------------------------|
C|-------------------------------------------------------------------------------------|
G|-------------------------------------------------------------------------------------|
C|-5-5-5x----5-5-5x----5-5-5x----5-5-5x----5-5-5x----5-5-5x----5--5--5--5--5--5--5--5--|

"Don't tell me that I'll be fine"
F|------------------------------------------------------|
C|-----7------------2-------5----4----------------------|
G|-5--------5--0---------0------------5~----------------|
C|------------------------------------------------------|

Pre-Chorus ("My broken bones are caving in")
F|-------------------------------------------------------------------------|
C|-------------------------------------------------------------------------|
G|------------------5~--------4~--------0~---------------------------------|
C|-0~-----------------------------------------------------5~---------------|

Chorus ("You'll find me burning bridges")
F|-----------------------------------------------------------------|
C|-----------------------------------------------------------------|
G|---------------------------------5-5-5-5-5-5-5-4-4-4-4-4-4-4-4-4-|
C|-0-0-0-0-0-0-0-0-0-0-0-0-0-0-0-0---------------------------------|

F|-----------------------------------------------------------------|
C|-----------------------------------------------------------------|
G|-0-0-0-0-0-0-0-0-0-0-0-0-0-0-0-0---------------------------------|
C|---------------------------------5-5-5-5-5-5-5-5-5-5-5-5-5-5-5-5-|

F|-----------------------------------------------------------------|
C|-----------------------------------------------------------------|
G|---------------------------------5-5-5-5-5-5-5-4-4-4-4-4-4-4-4-4-|
C|-0-0-0-0-0-0-0-0-0-0-0-0-0-0-0-0---------------------------------|

F|-----------------------------------------------------------------|
C|-----------------------------------------------------------------|
G|-0-0-0-0-0-0-0-0-0-0-0-0-0-0-0-0---------------------------------|
C|---------------------------------5----5----5~--------------------|

Verse II
F|-----------------------------------------------------------------|
C|-----------------------------------------------------------------|
G|-----------------------------------------------------------------|
C|-0-0-0-0-0-0-0-0-0-0-0-0-0-0-0-0-0-0-0-0-0-0-0-0-0-0-0-0-0-0-0-0-|

F|-----------------------------------------------------------------|
C|-----------------------------------------------------------------|
G|-----------------------------------------------------------------|
C|-5-5-5-5-5-5-5-5-5-5-5-5-5-5-5-5-5-5-5-5-5-5-5-5-5-5-5-5-5-5-5-5-|

F|---------------------------------------------------------------------------------|
C|---------------------------------------------------------------------------------|
G|---------------------------------------------------------------------------------|
C|-0-0-0x----0-0-0x----0-0-0x----0-0-0x----0-0-0x----0-0-0x----0-0-0x----0-0-0x----|

F|-------------------------------------------------------------------------------------|
C|-------------------------------------------------------------------------------------|
G|-------------------------------------------------------------------------------------|
C|-5-5-5x----5-5-5x----5-5-5x----5-5-5x----5-5-5x----5-5-5x----5--5--5--5--5--5--5--5--|

"Don't tell me that I'll be fine"
F|------------------------------------------------------|
C|-----7------------2-------5----4----------------------|
G|-5--------5--0---------0------------5~----------------|
C|------------------------------------------------------|


F|------------------------------------------------------|
C|-----7------------2-----------------------------------|
G|-5--------5--0----------------------------------------|
C|-----------------------0~-----------------------------|

Chorus

Bridge
F|-----------------------------------------------------------------------------------|
C|-----------------------------------------------------------------------------------|
G|---------------------------------------------------------------0-5-5-5~------------| x 2
C|-2--2--2~------------4--4--4~------------5--5--5~------------5---------------------|

"Take all I am"
F|-------------------------------------------------------------------------|
C|-------------------------------------------------------------------------|
G|-------------------------------------------------------------------------|
C|-2-2-2x---2-2-2x---2-2-2x---2-2-2x---4-4-4x---4-4-4x---4-4-4x---4-4-4x---|

F|-------------------------------------------------------------------------|
C|-------------------------------------------------------------------------|
G|-------------------------------------------------------------------------|
C|-5-5-5x---5-5-5x---5-5-5x---5-5-5x---5-5-5x---5-5-5x---5-5-5x---5-5-5x---|

F|-------------------------------------------------------------------------|
C|-------------------------------------------------------------------------|
G|-------------------------------------------------------------------------|
C|-2-2-2x---2-2-2x---2-2-2x---2-2-2x---4-4-4x---4-4-4x---4-4-4x---4-4-4x---|

F|-------------------------------------------------------------------------|
C|-------------------------------------------------------------------------|
G|-------------------------------------------------------------------------|
C|-5----5----5----5----5----5----5----5----5----5----5----5----5----5x-----|

("So take what's left of me")
F|---------------------------------------------------------------------------------|
C|---------------------------------------------------------------------------------|
G|-2----2----2----2----2----2----2----2----2----2----2----2----2----2----2----2----|
C|---------------------------------------------------------------------------------|

F|---------------------------------------------------------------------------------|
C|---------------------------------------------------------------------------------|
G|-0----0----0----0----0----0----0----0----0----0----0----0----0----0----0----0----|
C|---------------------------------------------------------------------------------|

F|---------------------------------------------------------------------------------|
C|---------------------------------------------------------------------------------|
G|---------------------------------------------------------------------------------|
C|-5----5----5----5----5----5----5----5----5----5----5----5----5----5----5----5----|

F|---------------------------------------------------------------------------------|
C|---------------------------------------------------------------------------------|
G|-0----0----0----0----0----0----0----0----0----0----0----0----0----0----0----0----|
C|---------------------------------------------------------------------------------|

F|---------------------------------------------------------------------------------|
C|---------------------------------------------------------------------------------|
G|-2----2----2----2----2----2----2----2----2----2----5----5----5----5----5----5----|
C|---------------------------------------------------------------------------------|

F|---------------------------------------------------------------------------------|
C|---------------------------------------------------------------------------------|
G|-0----0----0----0----0----0----0----0----0----0----0----0----5----5----4----4----|
C|---------------------------------------------------------------------------------|

F|---------------------------------------------------------------------------------|
C|----------------5----5----5----4------------------------5----5----4----7---------|
G|-----------5------------------------5--------------5------------------------7----|
C|-5----5----------------------------------5----5----------------------------------|

F|---------------------------------------------------------------------------------|
C|---------------------------------------------------------------------------------|
G|-0----0----0----0----0----0----0----0----0----0----0----0----0----0----0----0----|
C|---------------------------------------------------------------------------------|

Outro ("I guess I'll be fine")
F|---------------------------------------------------------------------------|
C|---------------------------------------------------------------------------|
G|-5~--------/12~--------9~--------7----5~-----------------------------------|
C|---------------------------------------------------------------------------|




4. OVER AND OVER

Verse
F|--------------------------------------|
C|--------------------------------------|
G|--------------------------------------| x 4
C|-0--0--2--2-2-2-2-2-2-2-2-2-2-2-2-2-2-|

F|--------------------------------------|
C|--------------------------------------|
G|-4--4--5--5-5-5-5-5-5-5-5-5-5-5-5-5-5-| x 2
C|--------------------------------------|

F|----------------------------------------------|
C|----------------------------------------------|
G|----------------------------------------------|
C|-2--2--2--2--2--2--2--2--2--2--2--2--2--------|

Pre-Chorus
F|-------------------------------------------------------------------------------------------------|
C|-------------------------------------------------------------------------------------------------|
G|-------------------------------------------------------------------------------------------------|
C|-4~------------2--2--7~------------2--2--4~------------2--2--7~------------2--2--2--2--2---------|

Chorus
F|-----------------------------------------------------------------|
C|-----------------------------------------------------------------|
G|-----------------------------------------------------------------|
C|-4-4-4-4-4-4-4-4-4-4-4-4-4-4-4-4-7-7-7-7-7-7-7-7-6-6-6-6-6-6-6-6-|

F|-----------------------------------------------------------------|
C|-----------------------------------------------------------------|
G|-----------------------------------------------------------------|
C|-0-0-0-0-0-0-0-0-0-0-0-0-0-0-0-0-0-0-0-0-0-0-0-0-2-2-2-2-2-2-2-2-|

F|-----------------------------------------------------------------|
C|-----------------------------------------------------------------|
G|-----------------------------------------------------------------|
C|-4-4-4-4-4-4-4-4-4-4-4-4-4-4-4-4-7-7-7-7-7-7-7-7-6-6-6-6-6-6-6-6-|

F|-----------------------------------------------------------------|
C|-----------------------------------------------------------------|
G|-----------------------------------------------------------------|
C|-0-0-0-0-0-0-0-0-0-0-0-0-0-0-0-0-0-0-0-0-0-0-0-0-2-2-2-2-2-------|

Bridge I x 2
F|-------------------------------------------------------------------------------------|
C|-------------------------------------------------------------------------------------|
G|-------------------------------------------------------------------------------------|
C|-0~----0x----0~----0x----0~----------------2~----2x----2~----2x----2~----------------|

F|--------------------------------------------------------------------------------------------|
C|--------------------------------------------------------------------------------------------|
G|--------------------------------------------------------------------------------------------|
C|-4~----4x----4~----4x----4~----------------2~----2x----2~----2x----2~-------7-7-7-7-6-6-6-6-|

Chorus

Bridge II x 2
F|-----------------------------------------------------------|
C|-----------------------------------------------------------|
G|-----------------------------------------------------------|
C|-0-0-0-0x----0-0-0-0x----0-0-0-0x----0-0-0-0x----0----0----|

F|-----------------------------------------------------------|
C|-----------------------------------------------------------|
G|-----------------------------------------------------------|
C|-4-4-4-4x----4-4-4-4x----2-2-2-2x----2-2-2-2x----7----6----|

-BREAK-

Outro
F|-----------------------------------------------------------------|
C|-----------------------------------------------------------------|
G|-----------------------------------------------------------------|
C|-0-0-0-0-0-0-0-0-0-0-0-0-0-0-0-0-2-2-2-2-2-2-2-2-2-2-2-2-2-2-2-2-|

F|-----------------------------------------------------------------|
C|-----------------------------------------------------------------|
G|---------------------------------4-4-4-4-4-4-4-4-4-4-4-4-4-4-4-4-|
C|-4-4-4-4-4-4-4-4-4-4-4-4-4-4-4-4---------------------------------|

F|-----------------------------------------------------------------|
C|-----------------------------------------------------------------|
G|-----------------------------------------------------------------|
C|-0-0-0-0-0-0-0-0-0-0-0-0-0-0-0-0-2-2-2-2-2-2-2-2-2-2-2-2-2-2-2-2-|

F|------------------------------------------------------------------------|
C|------------------------------------------------------------------------|
G|------------------------------------------------------------------------|
C|-4-4-4-4-4-4-4-4-4-4-4-4-4-4-4-4-4-4-4-4-4-4-4-4-4x----4x----4x---------|




5. A PART OF ME

(no bass; if you still really want to play this song, there's an excellent version already available
that tabs out the root notes and rhythm by David Henderson.  However, the actual song has no bass part.)




6. I COULDN'T WAIT TO LEAVE 6 MONTHS AGO

Intro
F|-----------------------------------------------------------------|
C|-----------------------------------------------------------------|
G|-----------------------------------------------------------------|
C|-5-5-5-5-5-5-5-5-5-5-5-5-5-5-5-5-9-9-9-9-9-9-9-9-7-7-7-7-7-7-7-7-|

F|-----------------------------------------------------------------|
C|-----------------------------------------------------------------|
G|-----------------------------------------------------------------|
C|-5-5-5-5-5-5-5-5-5-5-5-5-5-5-5-5-9-9-9-9-9-9-9-9--7---7---7---7--|

F|-----------------------------------------------------------------|
C|-----------------------------------------------------------------|
G|-----------------------------------------------------------------|
C|-5-5-5-5-5-5-5-5-5-5-5-5-5-5-5-5-9-9-9-9-9-9-7-7-7-7-7-7-7-7-7-7-|

F|-----------------------------------------------------------------|
C|-----------------------------------------------------------------|
G|-----------------------------------------------------------------|
C|-5-5-5-5-5-5-5-5-5-5-5-5-5-5-5-5-9-9-9-9-9-9-7-7-7-7-7-7-7-------|

Verse I
F|---------------------------------------------------------------------|
C|---------------------------------------------------------------------|
G|---------------------------------------------------------------------|
C|-5-5-5-5-5-5-5-5-5-5-5-5-5-5-5-5-9-9-9-9-9-9-9-9-7-7-7-7-12-12-12-12-|

F|---------------------------------------------------------------|
C|---------------------------------------------------------------|
G|---------------------------------------------------------------|
C|-5-5-5-5-5-5-5-5-5-5-5-5-5-5-5-5-9-9-9-9-9-9-9-9---7-7-7-7-7-7-|

"But I'm not getting over it"
F|-----------------------------------------------------------------|
C|-----------------------------------------------------------------|
G|-----------------------------------------------------------------| x 2
C|-5-5-5-5-5-5-5-5-7-7-7-7-7-7-7-7-9-9-9-9-9-9-9-9-9-9-9-9-9-9-9-9-|

F|--------------------------------------------------------------------------------------------------------|
C|--------------------------------------------------------------------------------------------------------|
G|--------------------------------------------------------------------------------------------------------|
C|-5-5-5-5-5-5-5-5-7-7-7-7-7-7-7-7-12--12--11--11--9--9--7--7--5~-----------------4---4---4~--------------|

Bass Groove x 2
F|-------------------------------------------------------------|
C|-------------------------------------------------------------|
G|-5-5--2--2-2-2-5-5--2--2-2-2-4-4--0--0-0-0-4-4--0--0-0-0-2-2-|
C|-------------------------------------------------------------|

F|----------------------------------------------------------|
C|----------------------------------------------------------|
G|-0-0-----------0-0-------------------------7--5--4-5-4-0--|
C|------5--5-5-5------5--5-5-5-6-6--4--4-4-4----------------|

"But I know that growing up's a part of growing up"
F|------------------------------------------------------------|
C|------------------------------------------------------------|
G|------------------------------------------------------------|
C|------------7-7-7-7-7-7-7-7-4-4-4-4-4-4-4-4-5-5-5-5-5-5-5-5-|

F|------------------------------------------------------------|
C|------------------------------------------------------------|
G|---------5--------------------------------------------------| x 2
C|-9-9--5-----7-7-7-7-7-7-7-7-4-4-4-4-4-4-4-4-5-5-5-5-5-5-5-5-|

F|---------------------------------------------------------------------------|
C|---------------------------------------------------------------------------|
G|---------5-----------------------------------------------------------------|
C|9-9--5-----7-7-7-7-7-7-7-7-5~-------------------------------12--11--9--11--|
                                                    
Outro
F|-----------------------------------------------------------------|
C|-----------------------------------------------------------------|
G|-----------------------------------------------------------------|
C|-9-9-9-9-9-9-9-9-9-9-9-9-9-9-9-9-9-9-9-9-9-9-9-9-9-9-9-9-9-9-9-9-|
                                                                            x 2
F|-----------------------------------------------------------------|
C|-----------------------------------------------------------------|
G|-----------------------------------------------------------------|
C|-5-5-5-5-5-5-5-5-5-5-5-5-5-5-5-5-7-7-7-7-7-7-7-7-7-7-7-7-7-7-7-7-|

F|-----------------------------------------------------------------|
C|-----------------------------------------------------------------|
G|-----------------------------------------------------------------|
C|-9~--------------------------------------------------------------|




7. ALL HYPE NO HEART

Intro
F|-------------------------------------------------------------------------|
C|-------------------------------------------------------------------------|
G|-------------------------------------------------------------------------|
C|-3~--------------------------3~---------------3----3----3----6--5--3--1--|

Verse
F|---------------------------------------------------------------------|
C|---------------------------------------------------------------------|
G|-----------------4-4-4-4-4-4-4-4-4-----------------------------------|
C|-3-3-3-3-3-3-3-3-------------------6-6-6-6-6-6-6-6-6-1-1-1-1-1-1-1-1-|

F|-----------------------------------------------------------------|
C|-----------------------------------------------------------------|
G|-----------------4-4-4-4-4-4-4-4-4-------------------------------|
C|-3-3-3-3-3-3-3-3-------------------6-6-6-6-6-6-6-6-6-6--5--3--1--|

F|---------------------------------------------------------------------|
C|---------------------------------------------------------------------|
G|-----------------4-4-4-4-4-4-4-4-4-----------------------------------|
C|-3-3-3-3-3-3-3-3-------------------6-6-6-6-6-6-6-6-6-1-1-1-1-1-1-1-1-|

F|-----------------------------------------------------------------------------|
C|-----------------------------------------------------------------------------|
G|-----------------4-4-4-4-4-4-4-4-4-------------------------------------------|
C|-3-3-3-3-3-3-3-3-------------------6-6-6-6-6-6-6-6-6-5--5--5--5--5--5--5--5--|

Breakdown
F|-----------------------------------|
C|-----------------------------------|
G|-----------------------------------| x 3
C|-3-3-3-3-3-3-3-3-3-3-3-3-3-3-3-3-3-|

F|---------------------------------------|
C|---------------------------------------|
G|---------------------------------------|
C|-3-3-3-3-3-3-3-3-3-3-3-3-5-5-5-5--3----|




8. UP IN SMOKE

Intro
F|---------------------------------------------------------------|
C|---------------------------------------------------------------|
G|---------------------------------------------------------------|
C|-7~---------------9~---------------11--11--9--9--7--7-7-7-7----|

Verse I
F|-----------------------------------------------------------------|
C|-----------------------------------------------------------------|
G|-----------------------------------------------------------------|
C|-7-7-7-7-7-7-7-7-7-7-7-7-7-7-7-7-9-9-9-9-9-9-9-9-9-9-9-9-9-9-9-9-|

F|-------------------------------------------------------------------------|
C|-------------------------------------------------------------------------|
G|---------------------------------7-7-7-7---------------------------------|
C|-11-11-11-11-11-11-11-11-9-9-9-9---------7-7-7-7-7-7-7-7-7-7-7-7-7-7-7-7-|

F|-----------------------------------------------------------------|
C|-----------------------------------------------------------------|
G|-----------------------------------------------------------------|
C|-7-7-7-7-7-7-7-7-7-7-7-7-7-7-7-7-9-9-9-9-9-9-9-9-9-9-9-9-9-9-9-9-|

F|-----------------------------------------------------------------|
C|-----------------------------------------------------------------|
G|-----------------------------------------------------------------|
C|-11--11--9-9-9--7--7-7-7-7--11--11--9-9-9--7~--------------------|

Verse II
F|-----------------------------------------------------------------|
C|-----------------------------------------------------------------|
G|-----------------------------------------------------------------|
C|-7-7-7-7-7-7-7-7-7-7-7-7-7-7-7-7-9-9-9-9-9-9-9-9-9-9-9-9-9-9-9-9-|

F|-----------------------------|
C|-----------------------------|
G|-----------------------------|
C|-11--11--9--9--7--7-7-7-7----|

F|-----------------------------------------------------------------|
C|-----------------------------------------------------------------|
G|-----------------------------------------------------------------|
C|-7-7-7-7-7-7-7-7-7-7-7-7-7-7-7-7-9-9-9-9-9-9-9-9-9-9-9-9-9-9-9-9-|

F|-----------------------------------------------------------------|
C|-----------------------------------------------------------------|
G|-----------------------------------------------------------------|
C|-11--11--9--9--7--7-7-7-7--11--11--9--9--7~----------------------|

Pre-Chorus
F|------------------------------------------------------------------|
C|------------------------------------------------------------------|
G|------------------------------------------------------------------|
C|-9~--------11~--------7~----------------9~--------11~------2-2----|

Chorus
F|-----------------------------------------------------------------|
C|-----------------------------------------------------------------|
G|-4-4-4-4-4-4-4-4-7-7-7-7-7-7-7-7---------------------------------|
C|---------------------------------9-9-9-9-9-9-9-9-7-7-7-7-7-7-7-7-|

F|-----------------------------------------------------------------|
C|-----------------------------------------------------------------|
G|-4-4-4-4-4-4-4-4-7-7-7-7-7-7-7-7---------------------------------|
C|---------------------------------9----9----9----7-7-7-7-7--------|

Verse I + II (same as before)

Bridge
F|------------------------------|
C|------------------------------|
G|------------------------------| x 3
C|-11---\7----11---\7----9--9-9-|

F|--------------------------------------------------------------------------------------|
C|--------------------------------------------------------------------------------------|
G|--------------------------------------------------------------------------------------|
C|-11-11--11-11--7-7--9-9--11--9--7--7~----------------7-7-7-7-7-7-7-7-7-7-7-7-7--------|

F|--------------------------------------------------|
C|--------------------------------------------------|
G|--------------------------------------------------|
C|-7~----------------11-11--7-7--9-9--7-7--7--------|

Chorus II
F|-----------------------------------------------------------------|
C|-----------------------------------------------------------------|
G|-4-4-4-4-4-4-4-4-7-7-7-7-7-7-7-7---------------------------------|
C|---------------------------------9-9-9-9-9-9-9-9-7-7-7-7-7-7-7-7-|

F|-----------------------------------------------------------------|
C|-----------------------------------------------------------------|
G|-4-4-4-4-4-4-4-4-7-7-7-7-7-7-7-7---------------------------------|
C|---------------------------------9----9----9----7-7-7-7-7--------|

F|---------------------------------------------------------------|
C|---------------------------------------------------------------|
G|-4--4-4--4-4-----7--7-7--7-7-----------------------------------|
C|---------------------------------9--9-9--9-9----7--7-7-7-7-7-7-|

F|-----------------------------------------------------------------|
C|-----------------------------------------------------------------|
G|-4-4-4-4-4-4-4-4-7-7-7-7-7-7-7-7---------------------------------|
C|---------------------------------9----9----9----7-7-7-7-7--------|

Outro = Verse I (same as before)




9. TABLES TURNED

Intro 
F|--------------------------------------------|
C|--------------------------------------------|
G|--------------------------------------------|
C|-0/12~--------------------------------------|

Main Riff x 2
F|---------------------------------------------------|
C|---------------------------------------------------|
G|-5--5---------------------2--2---------------------|
C|------4--4-5--5-5-5-5-5-5------4--4-5--5-5-5-5-5-5-|

Verse I
F|-----------------------------------------------------------------|
C|-----------------------------------------------------------------|
G|-----------------------------------------------------------------|
C|-0-0-0-0-0-0-0-0-7-7-7-7-9-9-9-9-0-0-0-0-0-0-0-0-9-9-9-9-4-4-4-4-|

F|-----------------------------------------------------------------|
C|-----------------------------------------------------------------|
G|-----------------------------------------------------------------|
C|-0-0-0-0-0-0-0-0-7-7-7-7-9-9-9-9-0-0-0-0-0-0-0-0-9--9-9-4--------|

Verse II
F|-----------------------------------------------------------------|
C|-----------------------------------------------------------------|
G|-----------------------------------------------------------------| x 4
C|-5-5-5-5-5-5-5-5-5-5-5-5-5-5-5-5-9-9-9-9-9-9-9-9-7-7-7-7-7-7-7-7-|

"Open up my window"
F|-----------------------------------------------------------------|
C|-----------------------------------------------------------------|
G|-----------------------------------------------------------------|
C|-5-5-5-5-5-5-5-5-7-7-7-7-7-7-7-7-9-9-9-9-9-9-9-9-0-0-0-0-0-0-0-0-|
                                                                        x 2
F|----------------------------------------------------------------|
C|----------------------------------------------------------------|
G|----------------------------------------------------------------|
C|-5-5-5-5-5-5-5-5-7-7-7-7-7-7-7-7-9-9-9-9-9-9-9-9-4----4----4----|

"And I don't care where you lay your head at night"
F|-----------------------------------------------------------------------------|
C|-----------------------------------------------------------------------------|
G|-----------------------------------------------------------------------------|
C|-0~----------------9~--------7~--------5----5-5--5--------9~-------7~--------|

Verse II (same as before)

"And I don't care where you lay your head at night" 
F|--------------------------------------------------|
C|--------------------------------------------------|
G|--------------------------------------------------|
C|-0~----------------7~--------9~--------12~--------|

F|-------------------------------------------------------------------|
C|-------------------------------------------------------------------|
G|-------------------------------------------------------------------|
C|-0~----------------7~--------9~--------4~--------5~----------------|

Bridge
F|---------------------------------------------------------------------|
C|---------------------------------------------------------------------|
G|---------------------------------------------------------------------| x 4
C|-5--5----5-5-5----5--5----5-5-5----9--9----9-9-9----7--7----7-7-7----|

"You are my hesitant smile, you are my crippling doubt"
F|-----------------------------------------------------------------|
C|-----------------------------------------------------------------|
G|-----------------------------------------------------------------| 
C|-5-5-5-5-5-5-5-5-5-5-5-5-5-5-5-5-5-5-5-5-5-5-5-5-5-5-5-5-5-5-5-5-|
                                                                         x 2
F|-----------------------------------------------------------------|
C|-----------------------------------------------------------------|
G|-----------------------------------------------------------------|
C|-9-9-9-9-9-9-9-9-9-9-9-9-9-9-9-9-7-7-7-7-7-7-7-7-7-7-7-7-7-7-7-7-|

Outro
F|------------------------------------------------------------------|
C|------------------------------------------------------------------|
G|------------------------------------------------------------------|
C|-5--5----5--5----5~--------------9--9----9--9----7~---------------|

F|------------------------------------------------------------------|
C|------------------------------------------------------------------|
G|------------------------------------------------------------------|
C|-5--5----5--5----5~--------------9--9----9-9-9--7--7---7-7-7------|




10. HEAD TO THE GROUND

No bass until the rest of the band comes in at "I can't control myself"
F|---------------------------------------------------------------------------|
C|---------------------------------------------------------------------------|
G|------------------------------5--5--5--------------------------------------|
C|-9--9--9--9--------7--7--7--7----------5--5--5--5--5--5--7--7--7--7--7--7--|

F|---------------------------------------------------------------------------|
C|---------------------------------------------------------------------------|
G|------------------------------5--5--5--------------------------------------|
C|-9--9--9--9\\\-----7--7--7--7----------5--5--5--5--5--5--7--7--7--7--7--7--|

Chorus
F|-------------------------------------------------------------------------|
C|-------------------------------------------------------------------------|
G|----------------------------------------------------------------5--4-----| 
C|-9--9--9--7--7--7--5--5--5--5--5--5--9--9--9--7--7--7--5--5--5--------7--|

F|-------------------------------------|
C|-------------------------------------|
G|-------------------------------------| 
C|-9--9--9--7--7--7--5--5--5--5--5--5--|

F|-------------------------------------------------------------------------|
C|-------------------------------------------------------------------------|
G|-------------------------------------------------------------------------|
C|-9--9--9--9--9--9--7--7--7--7--7--7--5--5--5--5--5--5--5--5--5--5--5--5--|

F|---------------------------------------------------------------------|
C|---------------------------------------------------------------------|
G|------------------------------------------------------------5--4-----| 
C|-9--9-9--7--7--7--5--5-5--5-5------9--9-9--7--7--7--5--5-5--------7--|

F|-------------------------------------|
C|-------------------------------------|
G|-------------------------------------| 
C|-9--9--9--7--7--7--5--5--5--5--5--5--|

F|-------------------------------------|
C|-------------------------------------|
G|-------------------------------------|
C|-9--9--9--9--9--9--7--7--7--7--7--7--|

F|-----------------------------------------------------------------|
C|-----------------------------------------------------------------|
G|--------------------------------------------------------5--4-----| 
C|-9--9-9--7--7--7--5--5-5-------9--9-9--7--7--7--5--5-5--------7--|

F|-------------------------------------|
C|-------------------------------------|
G|-------------------------------------| 
C|-9--9--9--7--7--7--5--5--5--5--5--5--|

F|-------------------------------------|
C|-------------------------------------|
G|-------------------------------------|
C|-9--9--9--9--9--9--7--7--7--7--7--7--|

F|-------------------------------------------------------------------------|
C|-------------------------------------------------------------------------|
G|----------------------------------------------------------------5--4-----| 
C|-9--9--9--7--7--7--5--5--5--5--5--5--9--9--9--7--7--7--5--5--5--------7--|

F|------------------------------------|
C|------------------------------------|
G|------------------------------------| 
C|-9--9-9--7--7--7--5--5--5--5--5--5--|

F|-------------------------------------------------------------------------|
C|-------------------------------------------------------------------------|
G|-------------------------------------------------------------------------|
C|-9--9--9--9--9--9--7--7--7--7--7--7--5~----------------------------------|


| /  slide up
| \  slide down
| h  hammer-on
| p  pull-off
| ~  vibrato
| +  harmonic
| x  Mute note
===============================================================================
Добавлено: 24.04.2016
Другие материалы по этой песне:
  • Аккорды и текст

Страница создана 24.04.2016
http://primanota.ru/neck-deep/rain-in-july-a-history-of-bad-decisions-album-chords.htm
Привет, Гость.
Предлагаем пройти революционный курс по гитаре.
Подарок от PrimaNota.Ru, забирай!