PrimaNota.ru - самый крупный в мире бесплатный архив песенных текстов, аккордов, табулатур и нот


Neck Deep - Sweet Nothings - бас-таба, видео

Регистрация Запомнить меня
Войти через:  Facebook Google Twitter Vk Yandex Mail.ru

Neck Deep - Sweet Nothings - бас-таба, видео

Печатать
Просмотров: 22
Neck Deep - Sweet Nothings

Tabbed by: Ashy (XxThreeCheersxX)
E-mail: burdickash@gmail.com

Tuning: Drop C

Intro
F|-------|
C|-------|
G|-------|
C|-12\\\-|

Chorus/Main Riff
F|---------------------------------------------|
C|---------------------------------------------|
G|---------------------------------------------| x 3
C|-0--0----0-0--0----4--5--5----5--5--5----7\--|

F|-------------------------------------------------|
C|-------------------------------------------------|
G|-------------------------------------------------| 
C|-0--0----0-0--0----4--5--5--5--5--5--5--5--5--5--|

Pre-Verse
F|---------------------------------------------------------|
C|---------------------------------------------------------|
G|---------------------------------------------------------|
C|-0~------------------------------------------------------|

Verse x 2
F|-----------------------------------------------------------------|
C|-----------------------------------------------------------------|
G|-----------------------------------------------------------------|
C|-0-0-0-0-0-0-0-0-0-0-0-0-0-0-0-0-0-0-0-0-0-0-0-0-0-0-0-0-0-0-0-0-|

F|-----------------------------------------------------------------|
C|-----------------------------------------------------------------|
G|-----------------------------------------------------------------|
C|-5-5-5-5-5-5-5-5-5-5-5-5-5-5-5-5-5-5-5-5-5-5-5-5-5-5-5-5-5-5-5-5-|

Pre-Chorus
F|-------------------------------------------------------------|
C|-------------------------------------------------------------|
G|-------------------------------------------------------------|
C|-7-7-7-7-7-7-9-9-9-9-9-9-12--5-5-5-5-5-5-5-5-5-5-5-5-5-5-5-5-|

F|----------------------------------------------------------------------|
C|----------------------------------------------------------------------|
G|----------------------------------------------------------------------|
C|-7-7-7-7-7-7-9-9-9-9-9-9-9-9-5---5-5----5--------5----5-5----5--------|

Chorus/Main Riff

Post-Chorus
F|---------------------------------------------------------|
C|---------------------------------------------------------|
G|---------------------------------------------------------|
C|-0~----------------------------0x------------------------|

Verse II
F|-------------------------------------------------------------|
C|-------------------------------------------------------------|
G|-------------------------------------------------------------|
C|-0-0-0-0--0-0-0-0-0-0-0--0-0-0-9x------------7-7-7-7---7-7-7-|

F|-------------------------------------------------------------|
C|-------------------------------------------------------------|
G|-------------------------------------------------------------|
C|-0-0-0-0--0-0-0-0-0-0-0--0-0-0-9-9-9-9--9-9-9-7-7-7-7--7-7-7-|

F|-----------------------------------------------------|
C|-----------------------------------------------------|
G|-----------------------------------------------------|
C|-0-0--0--0--0-0-0--0--0--0-9-9--9--9--9-7-7--7--7--7-|

F|----------------------------------------|
C|----------------------------------------|
G|----------------------------------------|
C|-0~--------7~--------9~--------7~-------|

Chorus/Main Riff

Bridge
F|----------------------------------------------------------|
C|----------------------------------------------------------|
G|----------------------------------------------------------|
C|-0~--------------0x---------------------------------------|

"Baby do you think of me"
F|-------------------------------------------------------------|
C|------------------------16------------12------------12-------|
G|----------12-------14--------14--12--------12--12--------12--|
C|-0--/12--------12--------------------------------------------|

F|---------------------------------------------------------|
C|--------------------16-----------------------------------|
G|------12-------14--------14--12~-------------------------|
C|-12--------12--------------------------------------------|

Outro
F|-----------------------------------------------------------------|
C|-----------------------------------------------------------------|
G|-----------------------------------------------------------------| x 3
C|-7-7-7-7-7-7-9-9-9-9-9-9-9-9-9-9-5-5-5-5-5-5-0-0-0-0-0-0-0-0-0-0-|

F|---------------------------------------------------------------------------|
C|---------------------------------------------------------------------------|
G|---------------------------------------------------------------------------|
C|-7-7-7-7-7-7-9-9-9-9-9-9-9-9-9-9-5--5--5~--------5--5--0~------------------|

Happy playing!

| /  slide up
| \  slide down
| h  hammer-on
| p  pull-off
| ~  vibrato
| +  harmonic
| x  Mute note
===============================================================================
Добавлено: 24.04.2016
Другие материалы по этой песне:
  • Аккорды и текст

Страница создана 24.04.2016
http://primanota.ru/neck-deep/sweet-nothings-chords.htm
Привет, Гость.
Предлагаем пройти революционный курс по гитаре.
Подарок от PrimaNota.Ru, забирай!