PrimaNota.ru - самый крупный в мире бесплатный архив песенных текстов, аккордов, табулатур и нот


Neck Deep - Tables Turned - бас-таба, видео

Регистрация Запомнить меня
Войти через:  Facebook Google Twitter Vk Yandex Mail.ru

Neck Deep - Tables Turned - бас-таба, видео

Печатать
Просмотров: 34
Neck Deep - Tables Turned (2014)

Tabbed by: Ash (XxThreeCheersxX)
E-mail: burdickash@gmail.com

Tuning: Drop C 

Intro 
F|--------------------------------------------|
C|--------------------------------------------|
G|--------------------------------------------|
C|-0/12~--------------------------------------|

Main Riff x 2
F|---------------------------------------------------|
C|---------------------------------------------------|
G|-5--5---------------------2--2---------------------|
C|------4--4-5--5-5-5-5-5-5------4--4-5--5-5-5-5-5-5-|

Verse I
F|-----------------------------------------------------------------|
C|-----------------------------------------------------------------|
G|-----------------------------------------------------------------|
C|-0-0-0-0-0-0-0-0-7-7-7-7-9-9-9-9-0-0-0-0-0-0-0-0-9-9-9-9-4-4-4-4-|

F|-----------------------------------------------------------------|
C|-----------------------------------------------------------------|
G|-----------------------------------------------------------------|
C|-0-0-0-0-0-0-0-0-7-7-7-7-9-9-9-9-0-0-0-0-0-0-0-0-9--9-9-4--------|

Verse II
F|-----------------------------------------------------------------|
C|-----------------------------------------------------------------|
G|-----------------------------------------------------------------| x 4
C|-5-5-5-5-5-5-5-5-5-5-5-5-5-5-5-5-9-9-9-9-9-9-9-9-7-7-7-7-7-7-7-7-|

"Open up my window"
F|-----------------------------------------------------------------|
C|-----------------------------------------------------------------|
G|-----------------------------------------------------------------|
C|-5-5-5-5-5-5-5-5-7-7-7-7-7-7-7-7-9-9-9-9-9-9-9-9-0-0-0-0-0-0-0-0-|
                                                                        x 2
F|----------------------------------------------------------------|
C|----------------------------------------------------------------|
G|----------------------------------------------------------------|
C|-5-5-5-5-5-5-5-5-7-7-7-7-7-7-7-7-9-9-9-9-9-9-9-9-4----4----4----|

"And I don't care where you lay your head at night"
F|-----------------------------------------------------------------------------|
C|-----------------------------------------------------------------------------|
G|-----------------------------------------------------------------------------|
C|-0~----------------9~--------7~--------5----5-5--5--------9~-------7~--------|

Verse II (same as before)

"And I don't care where you lay your head at night" 
F|--------------------------------------------------|
C|--------------------------------------------------|
G|--------------------------------------------------|
C|-0~----------------7~--------9~--------12~--------|

F|-------------------------------------------------------------------|
C|-------------------------------------------------------------------|
G|-------------------------------------------------------------------|
C|-0~----------------7~--------9~--------4~--------5~----------------|

Bridge
F|---------------------------------------------------------------------|
C|---------------------------------------------------------------------|
G|---------------------------------------------------------------------| x 4
C|-5--5----5-5-5----5--5----5-5-5----9--9----9-9-9----7--7----7-7-7----|

"You are my hesitant smile, you are my crippling doubt"
F|-----------------------------------------------------------------|
C|-----------------------------------------------------------------|
G|-----------------------------------------------------------------| 
C|-5-5-5-5-5-5-5-5-5-5-5-5-5-5-5-5-5-5-5-5-5-5-5-5-5-5-5-5-5-5-5-5-|
                                                                         x 2
F|-----------------------------------------------------------------|
C|-----------------------------------------------------------------|
G|-----------------------------------------------------------------|
C|-9-9-9-9-9-9-9-9-9-9-9-9-9-9-9-9-7-7-7-7-7-7-7-7-7-7-7-7-7-7-7-7-|

Outro
F|------------------------------------------------------------------|
C|------------------------------------------------------------------|
G|------------------------------------------------------------------|
C|-5--5----5--5----5~--------------9--9----9--9----7~---------------|

F|------------------------------------------------------------------|
C|------------------------------------------------------------------|
G|------------------------------------------------------------------|
C|-5--5----5--5----5~--------------9--9----9-9-9--7--7---7-7-7------|

Happy playing!

| /  slide up
| \  slide down
| h  hammer-on
| p  pull-off
| ~  vibrato
| +  harmonic
| x  Mute note
===============================================================================
Добавлено: 24.04.2016
Другие материалы по этой песне:
  • Аккорды и текст

Страница создана 24.04.2016
http://primanota.ru/neck-deep/tables-turned-chords.htm
Привет, Гость.
Предлагаем пройти революционный курс по гитаре.
Подарок от PrimaNota.Ru, забирай!