PrimaNota.ru - самый крупный в мире бесплатный архив песенных текстов, аккордов, табулатур и нот


Neck Deep - Wishful Thinking (album) - бас-таба, видео

Регистрация Запомнить меня
Войти через:  Facebook Google Twitter Vk Yandex Mail.ru

Neck Deep - Wishful Thinking (album) - бас-таба, видео

Печатать
Просмотров: 27
Neck Deep - Wishful Thinking

Tabbed by: Ashy (XxThreeCheersxX)
E-mail: burdickash@gmail.com

Tuning: Drop C

All of these songs are tabbed by me and are posted individually on this site.

Enjoy!

TRACKLIST:
1. Losing Teeth
2. Crushing Grief (No Remedy)
3. Staircase Wit
4. Damsel in Distress
5. Zoltar Speaks
6. Growing Pains
7. Say What You Want
8. Mileage
9. Sweet Nothings
10. What Did You Expect
11. Blank Pages
12. Candour





1. LOSING TEETH

Intro
F|---------------------------------------------------------------------------------|
C|---------------------------------------------------------------------------------|
G|---------------------------------------------------------------------------------|
C|-0-0x----------------0-0x----------------0-0-/12~------------0~--------2----4----|

Verse
F|--------------------------------------------------------------|
C|---------------4-5-4-------------------------4-5-4-----/7-----|
G|----------------------5--4--5-----------------------5------7--|
C|-5-5x----5x--------------------5-5x----5x---------------------|

F|---------------------------------------------------|
C|---------------4-5-4-------------------------------|
G|----------------------5--4--5----------------------|
C|-5-5x----5x--------------------0~--------2----4----|

Bridge 
F|--------------------------------------------------------------------------|
C|--------------------------------------------------------------------------|
G|-2~--------0~---------------------------2~--------4--5--------------------|
C|---------------------4~--------5~-----------------------5~----------------|

F|-----------------------------------------------------------------|
C|-----------------------------------------------------------------|
G|-2-2-2-2-2-2-2-2-0-0-0-0-0-0-0-0---------------------------------| x 3
C|---------------------------------4-4-4-4-4-4-4-4-5-5-5-5-5-5-5-5-|

F|------------------------------------------|
C|------------------------------------------|
G|-2-2-2-2-2-2-2-2-4--5---------------------|
C|-----------------------5~-----------------|

Pre-Chorus
F|-----------------------------------------------------------------|
C|-----------------------------------------------------------------|
G|-----------------------------------------------------------------|
C|-2-2-2-2-2-2-2-2-2-2-2-2-2-2--4--5-5-5-5-5-5-5-5-5-5-5-5-5-5-5-5-|

F|------------------------------------------------|
C|------------------------------------------------|
G|------------------------------------------------|
C|-2x--2x--2x--2x--2x--2x--2-2-2-2-5-5-5-5-5-5-5x-|

Chorus x 2
F|----------------------------------------------------------------------------------------------------|
C|----------------------------------------------------------------------------------------------------|
G|----------------------------------------------------------------------------------------------------|
C|-5-5----5--5-5-5----5--5-5-5----5--5-5-5--7-7-7-7--9-9----9--9-9-9----9--9-0-0----0--0-2-2--4-4-4-4-|

Verse II
F|--------------------------------------------------------------|
C|--------------------------------------------------------------|
G|--------------------------------------------------------------|
C|-5-5x----5x----------------5-5x----5x-------9-9-9-9----4-4-4--|

F|-------------------------------------------------|
C|----------------------4-5-7----------------------|
G|----------------4-5-7----------------------------|
C|-5-5x----5x------------------0~--------2----4----|

Bridge II
F|-----------------------------------------|
C|-----------------------------------------|
G|-2~--------0~----------------------------|
C|---------------------4~--------5~--------|

F|-----------------------------------------------------------------|
C|-----------------------------------------------------------------|
G|-2-2-2-2-2-2-2-2-2-2-2-2-2-2-2-2-0-0-0-0-0-0-0-0-0-0-0-0-0-0-0-0-|
C|-----------------------------------------------------------------|

F|-----------------------------------------------------------------|
C|-----------------------------------------------------------------|
G|-----------------------------------------------------------------|
C|-4-4-4-4-4-4-4-4-4-4-4-4-4-4-4-4-5-5-5-5-5-5-5-5-5-5-5-5-5-5-5-5-|

F|-----------------------------------------------------------------|
C|-----------------------------------------------------------------|
G|-2-2-2-2-2-2-2-2-2-2-2-2-2-2-2-2-4-4-4-4-4-4-4-4-4-4-4-4-4-4-4-4-|
C|-----------------------------------------------------------------|

F|-----------------------------------------------------------------|
C|-----------------------------------------------------------------|
G|-----------------------------------------------------------------|
C|-5-5-5-5-5-5-5-5-5-5-5-5-5-5-5-5-5-5-5-5-5-5-5-5-5-5-5-5-5-------|

Chorus x 2

Outro x 3 (fades out)
F|------------------------------------------------------------------------------------------------------|
C|---------------------------------------------------------------------------------------------4-5-4----|
G|---------------------------------------------------------------------------------------4-5-7-------5--|
C|-5-5----5--5-5-5----5--5-5-5----5--5-5-5--7-7-7-7--9-9----9--9-9-9----9--9-0-0----0--0----------------|





2. CRUSHING GRIEF (NO REMEDY)

Intro (no bass)

Main Riff x 2
F|--------------------------------------------------------------|
C|--------------------------------------------------------------|
G|--------------------------------------------------------------| 
C|-7-7-7--7--4--4-4-4-4-4-4-4-4-2-2-2-2-2-2-2-2-2-2-2-2-2-2-2-2-|

F|--------------------------------------------------------------|
C|--------------------------------------------------------------|
G|------------------------------------------------------2-2-2-2-| 
C|-7-7-7--7--4--4-4-4-4-4-4-4-4-2-2-2-2-2-2-2-2-2-2-2-2---------|

Verse I x 2
F|---------------------------------------------------------|
C|---------------------------------------------------------|
G|---------------------------------------------------------|
C|-7-7-7--7-7-7--7-7-7--7-7-7--4-4-4--4-4-4--4-4-4--4-4-4--|

F|---------------------------------------------------------|
C|---------------------------------------------------------|
G|-----------------------------2-2-2--2-2-2----------------|
C|-2-2-2--2-2-2--2-2-2--2-2-2----------------4-4-4--4-4-4--|

Chorus 
F|--------------------------------------------------------------|
C|--------------------------------------------------------------|
G|--------------------------------------------------------------| 
C|-----------4--4-4-4-4-4-4-4-4-2-2-2-2-2-2-2-2-2-2-2-2-2-2-2-2-|

F|--------------------------------------------------------------|
C|--------------------------------------------------------------|
G|------------------------------------------------------2-2-2-2-| 
C|-7-7-7--7--4--4-4-4-4-4-4-4-4-2-2-2-2-2-2-2-2-2-2-2-2---------|

F|--------------------------------------------------------------|
C|--------------------------------------------------------------|
G|--------------------------------------------------------------| 
C|-7-7-7--7--4--4-4-4-4-4-4-4-4-2-2-2-2-2-2-2-2-2-2-2-2-2-2-2-2-|

F|--------------------------------------------------------------|
C|--------------------------------------------------------------|
G|------------------------------------------------------2-2-2-2-| 
C|-7-7-7--7--4--4-4-4-4-4-4-4-4-2-2-2-2-2-2-2-2-2-2-2-2---------|

Post-Chorus
F|-------------------------------------------|
C|-------------------------------------------|
G|-------------------------------2~----------|
C|-7~--------4~--------2~--------------4~----|

Bridge x 2
F|----------------------------------------------------------------|
C|----------------------------------------------------------------|
G|----------------------------------------------------------------|
C|-7-7-7-7x--------7-7-7-7x-------4-4-4-4x--------4-4-4-4x--------|

F|----------------------------------------------------------------|
C|----------------------------------------------------------------|
G|---------------------------------2-2-2-2x-----------------------|
C|-2-2-2-2x--------2-2-2-2x------------------------4-4-4-4x-------|

Chorus II
F|--------------------------------------------------------------|
C|--------------------------------------------------------------|
G|--------------------------------------------------------------| 
C|-----------4--4-4-4-4-4-4-4-4-2-2-2-2-2-2-2-2-2-2-2-2-2-2-2-2-|

F|--------------------------------------------------------------|
C|--------------------------------------------------------------|
G|------------------------------------------------------2-2-2-2-| 
C|-7-7-7--7--4--4-4-4-4-4-4-4-4-2-2-2-2-2-2-2-2-2-2-2-2---------|

F|--------------------------------------------------------------|
C|--------------------------------------------------------------|
G|--------------------------------------------------------------| 
C|-7-7-7--7--4--4-4-4-4-4-4-4-4-2-2-2-2-2-2-2-2-2-2-2-2-2-2-2-2-|
                                                                      x 2
F|--------------------------------------------------------------|
C|--------------------------------------------------------------|
G|------------------------------------------------------2-2-2-2-| 
C|-7-7-7--7--4--4-4-4-4-4-4-4-4-2-2-2-2-2-2-2-2-2-2-2-2---------|

Bridge II
F|--------------------------------------------------------------------------------------|
C|--------------------------------------------------------------------------------------|
G|--------------------------------------------------------------2-2x--------------------|
C|-7-7x----------------4-4x-----------------2-2x----------------------------4-4x--------|

F|-----------------------------------------------------------------|
C|-----------------------------------------------------------------|
G|-----------------------------------------------------------------|
C|-7-7-7-7-7-7-7-7-7-7-7-7-7-7-7-7-4-4-4-4-4-4-4-4-4-4-4-4-4-4-4-4-|
                                                                        x 3
F|-----------------------------------------------------------------|
C|-----------------------------------------------------------------|
G|---------------------------------2-2-2-2-2-2-2-2-----------------|
C|-2-2-2-2-2-2-2-2-2-2-2-2-2-2-2-2-----------------4-4-4-4-4-4-4-4-|

Outro
F|---------------------------------------------------------------------------|
C|---------------------------------------------------------------------------|
G|---------------------------------------------------------------------------|
C|-7--7--7--7--7--7--4--2~---------------------------------------------------|





3. STAIRCASE WIT

Intro
F|---------|
C|---------|
G|---------|
C|-7--6----|

F|----------------------------------------------------------------------------------------|
C|----------------------------------------------------------------------------------------|
G|----------------------------------------------------------------------------------------| x 2
C|-2----2--2--2--7--6----2----2--2--2--7--6----2----2--2--2--7--6----4----4--4----7--6----|

F|--------------------------|
C|--------------------------|
G|--------------------------|
C|-2~---------------7--6----|

Verse
F|-------------------------------------------------------------------------------------------------|
C|-------------------------------------------------------------------------------------------------|
G|-------------------------------------------------0--0--0--0--0--0--0--0--0--0--0--0--0--0--0--0--|
C|-2--2--2--2--2--2--2--2--2--2--2--2--2--2--2--2--------------------------------------------------|

F|-------------------------------------------------------------------------------------------------|
C|-------------------------------------------------------------------------------------------------|
G|-4--4--4--4--4--4--4--4--2--2--2--2--2--2--2--2--0--0--0--0--0--0--0--0--0--0--0--0--7--5--7--9--|
C|-------------------------------------------------------------------------------------------------|

F|-------------------------------------------------------------------------------------------------|
C|-------------------------------------------------------------------------------------------------|
G|-------------------------------------------------0--0--0--0--0--0--0--0--0--0--0--0--0--0--0--0--|
C|-2--2--2--2--2--2--2--2--2--2--2--2--2--2--2--2--------------------------------------------------|

F|-------------------------------------------------------------------------------------------------|
C|-------------------------------------------------------------------------------------------------|
G|-4--4--4--4--4--4--4--4--2--2--2--2--2--2--2--2--0--0--0--0--0--0--0--0--0--0--0--0--0--0--0--0--|
C|-------------------------------------------------------------------------------------------------|

Pre-Chorus
F|---------------------------------------|
C|---------------------------------------|
G|---------------------------------------|
C|-4-------7--------4------------7--6----|

Chorus
F|----------------------------------------------------------------------------------------|
C|----------------------------------------------------------------------------------------|
G|----------------------------------------------------------------------------------------| x 4
C|-2----2--2--2--7--6----2----2--2--2--7--6----2----2--2--2--7--6----4----4--4----7--6----|

Verse II x 2
F|-------------------------------------------------------------------------------------------------|
C|-------------------------------------------------------------------------------------------------|
G|-4--4--4--4--4--4--4--4--0--0--0--0--0--0--0--0--------------------------------------------------|
C|-------------------------------------------------2--2--2--2--2--2--2--2--4--4--4--4--6--6--6--6--|

Pre-Chorus II
F|-------------------------------------------------------------------------------------------------|
C|-------------------------------------------------------------------------------------------------|
G|-4~---------------------0~-----------------------------------------------------------------------|
C|-------------------------------------------------2~----------------------------------------------|

F|---------------------------------------------------------------------------------------------|
C|---------------------------------------------------------------------------------------------|
G|-4~---------------------0~-------------------------------------------------------------------|
C|-------------------------------------------------2~----------------------2--2--2--2--7--6----|

Chorus

Bridge
F|----------------------------------------------------------------------------------------------------------|
C|----------------------------------------------------------------------------------------------------------|
G|-----------------------------0~-----------------------4~------------2~------------0~----------------------|
C|-2~------------4~-----------------------------------------------------------------------------------------|

F|----------------------------------------------------------------------------------|
C|----------------------------------------------------------------------------------|
G|-----------------------------0~-----------------------4~------------2~------------|
C|-2~------------4~-----------------------------------------------------------------|

F|-------------------------------------------------|
C|-------------------------------------------------|
G|-0--0--0--0--0--0--0--0--0--0--0--0--0--0--0--0--|
C|-------------------------------------------------|

Outro
F|----------------------------------------------------------------------------------------------|
C|----------------------------------------------------------------------------------------------|
G|----------------------------------------------0--0--0--0--0--0--0--0--0--0--0--0--0--0--0--0--|
C|-2--2--2--2--2--2--2--2--2--4--4--4--4--4x----------------------------------------------------|

F|----------------------------------------------------------------------------------------------|
C|----------------------------------------------------------------------------------------------|
G|-4--4--4--4--4--4--4--4--2--2--2--2--2--2x----0--0--0--0--0--0--0--0--0--0--0--0--0--0--0--0--|
C|----------------------------------------------------------------------------------------------|

F|----------------------------------------------------------------------------------------------|
C|----------------------------------------------------------------------------------------------|
G|----------------------------------------------0--0--0--0--0--0--0--0--0--0--0--0--0--0--0--0--|
C|-2--2--2--2--2--2--2--2--2--4--4--4--4--4x----------------------------------------------------|

F|----------------------------------------------------------------------------------------------|
C|----------------------------------------------------------------------------------------------|
G|-4~-------------------------2~----------------0~----------------------------------------------|
C|----------------------------------------------------------------------------------------------|





4. DAMSEL IN DISTRESS

Intro x 2
F|-------------------------------------------------------------------------|
C|-------------------------------------------------------------------------|
G|-------------------------------------------------------------------------|
C|-9--9--9--7--7--7--5~----------------5--5--5--7--7--7--0~----------------|

Verse I x 2
F|-----------------------------------------------------------------|
C|-----------------------------------------------------------------|
G|-----------------------------------------------------------------|
C|-0-0-0-0-0-0-0-0-0-0-0-0-0-0-0-0-5-5-5-5-5-5-5-5-5-5-5-5-5-5-5-5-|

F|-----------------------------------------------------------------|
C|-----------------------------------------------------------------|
G|-----------------------------------------------------------------|
C|-7-7-7-7-7-7-7-7-7-7-7-7-7-7-7-7-5-5-5-5-5-5-5-5-7-7-7-7-7-7-7-7-|

Interlude
F|---------------------------------------------------------------|
C|---------------------------------------------------------------|
G|---------------------------------------------------------------|
C|-0--0-0-0-0-0-0-0-0-0-0-0-0-0-0-5--5-5-5-5-5-5-5-5-5-5-5-5-5-5-|

F|---------------------------------------------------------------|
C|---------------------------------------------------------------|
G|---------------------------------------------------------------|
C|-0--0-0-0-0-0-0-0-0-0-0-0-0-0-0-7--7-7-7-7-7-7-5-5-5-5-5-5-5-5-|

Verse II 
F|---------------------------------------------------------------|
C|---------------------------------------------------------------|
G|---------------------------------------------------------------|
C|-0--0-0-0-0-0-0-0-0-0-0-0-0-0-0-5--5-5-5-5-5-5-5-5-5-5-5-5-5-5-|

F|---------------------------------------------------------------|
C|---------------------------------------------------------------|
G|---------------------------------------------------------------|
C|-0--0-0-0-0-0-0-0-0-0-0-0-0-0-0-7--7-7-7-7-7-7-5-5-5-5-5-5-5-5-|

F|-----------------------------------------------------------------------|
C|-----------------------------------------------------------------------|
G|-----------------------------------------------------------------------| x 2
C|-0--0-0-0-0-0-0-0-0-0-0-0-0-0-0-5--5-5-5-5-5-5---------5-------5-------|

Chorus
F|-----------------------------------------------------------------|
C|-----------------------------------------------------------------|
G|-----------------------------------------------------------------|
C|-0-0-0-0-0-0-0-0-7-7-7-7-7-7-7-7-9-9-9-9-9-9-9-9-5-5-5-5-5-5-5-5-|

F|-----------------------------------------------------------------|
C|-----------------------------------------------------------------|
G|-----------------------------------------------------------------|
C|-0-0-0-0-0-0-0-0-7-7-7-7-7-7-7-7-9-9-9-9-9-9-9-9-5~--------------|

Verse III
F|--------------------------------------------------------------------|
C|--------------------------------------------------------------------|
G|--------------------------------------------------------------------|
C|-0-0-0-0-0-0-0-0x----0-0-0-0-7-7-7-7-7-7-7-7-------5-------5--------|

F|-----------------------------------------------------------------|
C|-----------------------------------------------------------------|
G|-----------------------------------------------------------------|
C|-0-0-0-0-0-0-0-0x----0-0-0-0-7-7-7-7-7-7-7-7-5----7----4----5----|

Verse IV
F|-----------------------------------------------------------------|
C|-----------------------------------------------------------------|
G|-----------------------------------------------------------------|
C|-0-0-0-0-0-0-0-0-0-0-0-0-0-0-0-0-5-5-5-5-5-5-5-5-5-5-5-5-5-5-5-5-|

F|-----------------------------------------------------------------|
C|-----------------------------------------------------------------|
G|-----------------------------------------------------------------|
C|-7-7-7-7-7-7-7-7-7-7-7-7-7-7-7-7-5-5-5-5-5-5-5-5-7-7-7-7-7-7-7-7-|

F|-----------------------------------------------------------------|
C|-----------------------------------------------------------------|
G|-----------------------------------------------------------------|
C|-0-0-0-0-0-0-0-0-0-0-0-0-0-0-0-0-5-5-5-5-5-5-5-5-5-5-5-5-5-5-5-5-|

F|-----------------------------------------------------------------|
C|-----------------------------------------------------------------|
G|-----------------------------------------------------------------|
C|-7-7-7-7-7-7-7-7-7-7-7-7-7-7-7-7-5-5-5-5-5-5-5-5-7-7-7-7x--------|

Chorus II
F|-----------------------------------------------------------------|
C|-----------------------------------------------------------------|
G|-----------------------------------------------------------------| x 3
C|-0-0-0-0-0-0-0-0-7-7-7-7-7-7-7-7-9-9-9-9-9-9-9-9-5-5-5-5-5-5-5-5-|

F|-----------------------------------------------------------------|
C|-----------------------------------------------------------------|
G|-----------------------------------------------------------------|
C|-0-0-0-0-0-0-0-0-7-7-7-7-7-7-7-7-9-9-9-9-9-9-9-9-5~--------------|

Bridge I
F|-----------------------------------------------------------------|
C|-----------------------------------------------------------------|
G|-----------------------------------------------------------------|
C|-0-0-0-0-0-0-0-0-0-0-0-0-0-0-0-0-7-7-7-7-7-7-7-7-7-7-7-7-7-7-7-7-|

F|-------------------------------------------------------------------------------------------------|
C|-------------------------------------------------------------------------------------------------|
G|-------------------------------------------------------------------------------------------------|
C|-12-12-12-12-12-12-12-12-14-14-14-14-14-14-14-14-12-12-12-12-12-12-12-12-12-12-12-12-12-12-12-12-|

F|-----------------------------------------------------------------|
C|-----------------------------------------------------------------|
G|-----------------------------------------------------------------|
C|-0-0-0-0-0-0-0-0-0-0-0-0-0-0-0-0-7-7-7-7-7-7-7-7-7-7-7-7-7-7-7-7-|

F|----------------------------------------------------------------------------------|
C|----------------------------------------------------------------------------------|
G|---------9--10--12--10--9---------------------------------------------------------|
C|-12--14-------------------14--12-12-12-12-12-12-12-12-12-12-12-12-12-12-12-12x----|

Bridge II x 2
F|-----------------------------------------------------------------------------|
C|-----------------------------------------------------------------------------|
G|-----------------------------------------------------------------------------|
C|-0-0-0-0-0-0-0-0x----7-7-7----5-5-5----9-9-9-9-9-9-9-9x----7-7-7----5-5-5----|

Final Chorus
F|-----------------------------------------------------------------|
C|-----------------------------------------------------------------|
G|-----------------------------------------------------------------| x 3
C|-0-0-0-0-0-0-0-0-7-7-7-7-7-7-7-7-9-9-9-9-9-9-9-9-5-5-5-5-5-5-5-5-|

F|-----------------------------------------------------------------|
C|-----------------------------------------------------------------|
G|-----------------------------------------------------------------|
C|-0-0-0-0-0-0-0-0-7-7-7-7-7-7-7-7-9-9-9-9-9-9-9-9-5~--------------|





5. ZOLTAR SPEAKS

Intro
F|---------------------------------------------------------------------------------------|
C|---------------------------------------------------------------------------------------|
G|---------------------------------------------------------------------------------------|
C|-9x-------------------------5--5--5--5-9~------------------------9x----12--12--11--11--|

Main Riff
F|-----------------------------------------------------------------|
C|-----------------------------------------------------------------|
G|-----------------------------------------------------------------|
C|-9-9-9-9-9-9-9-9-5-5-5-5-5-5-5-5-0-0-0-0-0-0-0-0-7-7-7-7-7-7-7-7-|

F|-----------------------------------------------------------------|
C|-----------------------------------------------------------------|
G|-----------------------------------------------------------------|
C|-9-9-9-9-9-9-9-9-5-5-5-5-5-5-5-5-7-7-7-7-7-7-7-7-7-7-7-7-7-7-7-7-|

Pre-Verse
F|--------------------------|
C|--------------------------|
G|--------------------------|
C|-9~---------------------7-|

Verse
F|-----------------------------------------------------------------|
C|-----------------------------------------------------------------|
G|-----------------------------------------------------------------|
C|-9-9-9-9-9-9-9-9-9-9-9-9-9-9-9-9-5-5-5-5-5-5-5-5-5-5-5-5-5-5-5-5-|

F|--------------------------------------------------------|
C|--------------------------------------------------------|
G|--------------------------------------------------------|
C|-7-7-7-7-7-7-7-7-7-7-7-7-7-7-7-7-5----5----5----5----7--|

F|-----------------------------------------------------------------|
C|-----------------------------------------------------------------|
G|-----------------------------------------------------------------|
C|-9-9-9-9-9-9-9-9-9-9-9-9-9-9-9-9-5-5-5-5-5-5-5-5-5-5-5-5-5-5-5-5-|

F|-----------------------------------------------------------------|
C|-----------------------------------------------------------------|
G|-----------------------------------------------------------------|
C|-7-7-7-7-7-7-7-7-7-7-7-7-7-7-7-7-7-7-7-7-7-7-7-7-12--12--11--11--|

Main Riff 

Chorus x 4
F|---------------------------------------------------------------|
C|---------------------------------------------------------------|
G|---------------------------------------------------------------|
C|-0-0-0-0-0-4----7--7-7-7-7-7-7-5-5-5-5-5-5-5-5-5-5-5-5-5-7-7-7-|

Verse II 
F|-------------------------------------------------|
C|-------------------------------------------------|
G|-------------------------------------------------| x 4
C|-9--9--9--9--5--5--5--5--7--7--7--7--0--0--0--0--|

"How did it come to this"
F|-----------------------------------------------------------|
C|-----------------------------------------------------------|
G|-----------------------------------------------------------| x 4
C|-9--9--9--9--0--0-0-0-0-0-0-0-7-7-7-7-7-7-5--5-5-5-5-5-5-5-|

Chorus II
F|---------------------------------------------------------------|
C|---------------------------------------------------------------|
G|---------------------------------------------------------------| x 3
C|-0-0-0-0-0-4----7--7-7-7-7-7-7-5-5-5-5-5-5-5-5-5-5-5-5-5-7-7-7-|

F|---------------------------------------------------------------|
C|---------------------------------------------------------------|
G|---------------------------------------------------------------|
C|-0-0-0-0-0-4----7--7-7-7-7-7-7-5~------------------------------|

Key Change Chorus
F|-------------------------------------------------------------------------|
C|-------------------------------------------------------------------------|
G|-------------------------------------------------------------------------| x 3
C|-3-3-3-3-3-7----10--10-10-10-10-10-10-8-8-8-8-8-8-8-8-8-8-8-8-8-10-10-10-|

F|-------------------------------------------------------------------------|
C|-------------------------------------------------------------------------|
G|-------------------------------------------------------------------------| 
C|-3-3-3-3-3-7----10--10-10-10-10-10-10-8~---------------------------------|





6. GROWING PAINS

Intro
F|-----------|
C|-----------|
G|-5----4----|
C|-----------|

F|-------------------------------------------------------------------------------------------------|
C|-------------------------------------------------------------------------------------------------|
G|-------------------------------------------------------------------------5--5--5--5--5--4--7--7--| x 2
C|-7--7--7--7--7--7--7--7--7--7--7--7--7--7--7--7--4--4--4--4--4--4--4--4--------------------------|

Verse x 4
F|-----------------------------------------------------------------|
C|-----------------------------------------------------------------|
G|-----------------------------------------------------------------|
C|-7-7-7-7-7-7-7-7-7-7-7-7-7-7-7-7-7-7-7-7-7-7-7-7-7-7-7-7-7-7-7-7-|

F|-----------------------------------------------------------------|
C|-----------------------------------------------------------------|
G|---------------------------------5-5-5-5-5-5-5-5-5-5-5-5-5-5-5-5-|
C|-4-4-4-4-4-4-4-4-4-4-4-4-4-4-4-4---------------------------------|

Pre-Chorus x 2
F|-------------------------------------------------------------------------------------------------|
C|-------------------------------------------------------------------------------------------------|
G|-4--4--4--4--4--4--4--4--5--5--5--5--5--5--5--5--------------------------------------------------|
C|-------------------------------------------------7--7--7--7--7--7--7--7--6--6--6--6--6--6--6--6--|

Chorus x 2
F|-------------------------------------------------------------------------------------------------|
C|-------------------------------------------------------------------------------------------------|
G|-------------------------------------------------------------------------------------------------|
C|-7--7--7--7--7--7--7--7--7--7--7--7--7--7--7--7--6--6--6--6--6--6--6--6--6--6--6--6--6--6--6--6--|

F|-------------------------------------------------------------------------------------------------|
C|-------------------------------------------------------------------------------------------------|
G|-------------------------------------------------5--5--5--5--5--5--5--5--5--5--5--5--5--5--5--5--|
C|-4--4--4--4--4--4--4--4--4--4--4--4--4--4--4--4--------------------------------------------------|

Bass Solo
F|-------------------------------------------------------|
C|-------------------------------------------------------|
G|-0--0--0-0-0-0-0--0--0-0-0-0-0--0--0-0-0-0-5---4--7----|
C|-------------------------------------------------------|

Verse x 4

"No one like you girl, no one in the world"
F|-------------------------------------------------------------------------------------------------|
C|-------------------------------------------------------------------------------------------------|
G|-------------------------------------------------------------------------5--5--5--5--5--5--5--5--| x 2
C|-7--7--7--7--7--7--7--7--7--7--7--7--7--7--7--7--4--4--4--4--4--4--4--4--------------------------|

Pre-Chorus x 2

Chorus x 2

Outro
F|-------------------------------------------------------------------------------------------------|
C|-------------------------------------------------------------------------------------------------|
G|-------------------------------------------------------------------------------------------------|
C|-7--7--7--7--7--7--7--7--7--7--7--7--7--7--7--7--7--7--7--7--7--7--7--7--7--7--7--7--7x----------|

F|-------------------------------------------------------------------------------------------------|
C|-------------------------------------------------------------------------------------------------|
G|-------------------------------------------------------------------------------------------------|
C|-7--7--7--7--7--7--7--7--7--7--7--7--7--7--7--7--7--7--7--7--7--7--7--7--7--7--7--7--7--7--7--7--|





7. SAY WHAT YOU WANT

Intro
F|------------------------------|
C|------------------------------|
G|------------------------------| x 3
C|-2--2-2---2--2---2-2--7-7-7-7-|

F|-------------------------|
C|-------------------------|
G|-------------------------|
C|-2--2-2---2--2--2--2--2--|

Verse
F|--------------------------------------------------------------|
C|--------------------------------------------------------------|
G|0-0-0-0-0-0-0-0-0-0-0-0-0-0-0-0-4-4-4-4-4-4-4-4-2-2-2-2-2-2-2-| x 2
C|--------------------------------------------------------------|

F|-------------------------------------------------------------|
C|---------------------------------------2-------------2-------|
G|-0-0-0-0-0-0-0-0-0-0-0-0-0-0-0-0-4-4-4----4--4-2-2-2----2--2-| x 2
C|-------------------------------------------------------------|

Chorus
F|-------------------------------------------------------------|
C|-------------------------------------------------------------|
G|-------------------------------2-2-2-2--2--2-2-2-2-2-2-2-2-2-|
C|-2-2-2-2--2--2-2-2-2-2-2-2-2-2-------------------------------|

F|-----------------------------------------------------2-2-1-1-|
C|-------------------------------------------------------------|
G|-4-4-4-4--4--4-4-4-4-4-4-4-4-4-0-0-0-0--0--0-0-0-0-0---------|
C|-------------------------------------------------------------|

Outro
F|-----------------------------------------------------------------|
C|-----------------------------------------------------------------|
G|---------------------------------2-2-2-2-2-2-2-2-2-2-2-2-2-2-2-2-|
C|-2-2-2-2-2-2-2-2-2-2-2-2-2-2-2-2---------------------------------|

F|---------------------------------------------------------------------------|
C|---------------------------------------------------------------------------|
G|-4-4-4-4-4-4-4-4-4-4-4-4-4-4-4-4-0-0-0-0-0-0-0-0-0----0----0~--------------|
C|---------------------------------------------------------------------------|





8. MILEAGE

Intro x 2
F|---------------------------------------------------------------------|
C|---------------------------------------------------------------------|
G|---------------------------------------------------------------------|
C|-2~----2x-----2--2~---2-2x----2-2--6~----6x----6--9~---9-9x----9-4-4-|

Verse 
F|---------------------------------|
C|---------------------------------|
G|---------------------------------| x 3
C|-6-6-6-2-2-2-2-2-2-2-2-2-2-2-2-2-|

F|---------------------------------|
C|---------------------------------|
G|---------------------------------|
C|-4-4-4-4-4-4-4-4-2-2-2-2-2-2-2-2-|

Pre-Chorus
F|---------------------------------------------------------|
C|---------------------------------------------------------|
G|---------------------------------------------------------|
C|----------2--2-2-2-2-2-2-2-2-6--6--6-9--2--2-2-2-2-4-4-4-|

F|---------------------------------------------------------|
C|---------------------------------------------------------|
G|---------------------------------------------------------|
C|-6--6--6-9--2--2-2-2-2-2-2-2-4--4--4-4--2--2-2-2-2-4-4-4-|

Chorus x 2
F|----------------------------------------------------------------|
C|----------------------------------------------------------------|
G|----------------------------------------------------------------|
C|-6-6-6-6-6-6-6-6-6-6-6-6-6-6-6-4--4-4-4-4-4-4-4-4-4-4-4-4-4-4-4-|

F|--------------------------------------------------------------|
C|--------------------------------------------------------------|
G|--------------------------------------------------------------|
C|-2~---2-2x------2~---2-2x------4~---4-4x------4~----4-4x------|

Verse

Intro x 2

Interlude ("Don't let her tear you apart at the seams")
F|-------------|
C|-------------|
G|-------------|
C|-2--2--4--4--|

Chorus x 2

Bridge
F|-----------------------------------------------------------------|
C|-----------------------------------------------------------------|
G|-----------------------------------------------------------------|
C|-2-2-2-2-2-2-4-4-4-4-4-4-4-4-4-4-6-6-6-6-6-6-9-9-9-9-9-9-9-11-13-|

F|---------------------------------------------------------------|
C|---------------------------------------------------------------|
G|---------------------------------------------------------------|
C|-2-2-2-2-2-2-4-4-4-4-4-4-4-4-4-4-6-6-6-6-6-6-9-9-9-9-9-9-9-9-9-|

Outro
F|-------------------------------------------------------------------|
C|-------------------------------------------------------------------|
G|-------------------------------------------------------------------|
C|-------------4----4-4-4-4-4-4-4-4-6-6-6-6-6-6-9----9-9-9-9-9-9-9-9-|

F|-------------------------------------------------------------------|
C|-------------------------------------------------------------------|
G|-------------------------------------------------------------------|
C|-2-2-2-2-2-2-4----4-4-4-4-4-4-4-4-6-6-6-6-6-6-9----9-9-9-9-9-9-9---|





9. SWEET NOTHINGS

Intro
F|-------|
C|-------|
G|-------|
C|-12\\\-|

Chorus/Main Riff
F|---------------------------------------------|
C|---------------------------------------------|
G|---------------------------------------------| x 3
C|-0--0----0-0--0----4--5--5----5--5--5----7\--|

F|-------------------------------------------------|
C|-------------------------------------------------|
G|-------------------------------------------------| 
C|-0--0----0-0--0----4--5--5--5--5--5--5--5--5--5--|

Pre-Verse
F|---------------------------------------------------------|
C|---------------------------------------------------------|
G|---------------------------------------------------------|
C|-0~------------------------------------------------------|

Verse x 2
F|-----------------------------------------------------------------|
C|-----------------------------------------------------------------|
G|-----------------------------------------------------------------|
C|-0-0-0-0-0-0-0-0-0-0-0-0-0-0-0-0-0-0-0-0-0-0-0-0-0-0-0-0-0-0-0-0-|

F|-----------------------------------------------------------------|
C|-----------------------------------------------------------------|
G|-----------------------------------------------------------------|
C|-5-5-5-5-5-5-5-5-5-5-5-5-5-5-5-5-5-5-5-5-5-5-5-5-5-5-5-5-5-5-5-5-|

Pre-Chorus
F|-------------------------------------------------------------|
C|-------------------------------------------------------------|
G|-------------------------------------------------------------|
C|-7-7-7-7-7-7-9-9-9-9-9-9-12--5-5-5-5-5-5-5-5-5-5-5-5-5-5-5-5-|

F|----------------------------------------------------------------------|
C|----------------------------------------------------------------------|
G|----------------------------------------------------------------------|
C|-7-7-7-7-7-7-9-9-9-9-9-9-9-9-5---5-5----5--------5----5-5----5--------|

Chorus/Main Riff

Post-Chorus
F|---------------------------------------------------------|
C|---------------------------------------------------------|
G|---------------------------------------------------------|
C|-0~----------------------------0x------------------------|

Verse II
F|-------------------------------------------------------------|
C|-------------------------------------------------------------|
G|-------------------------------------------------------------|
C|-0-0-0-0--0-0-0-0-0-0-0--0-0-0-9x------------7-7-7-7---7-7-7-|

F|-------------------------------------------------------------|
C|-------------------------------------------------------------|
G|-------------------------------------------------------------|
C|-0-0-0-0--0-0-0-0-0-0-0--0-0-0-9-9-9-9--9-9-9-7-7-7-7--7-7-7-|

F|-----------------------------------------------------|
C|-----------------------------------------------------|
G|-----------------------------------------------------|
C|-0-0--0--0--0-0-0--0--0--0-9-9--9--9--9-7-7--7--7--7-|

F|----------------------------------------|
C|----------------------------------------|
G|----------------------------------------|
C|-0~--------7~--------9~--------7~-------|

Chorus/Main Riff

Bridge
F|----------------------------------------------------------|
C|----------------------------------------------------------|
G|----------------------------------------------------------|
C|-0~--------------0x---------------------------------------|

"Baby do you think of me"
F|-------------------------------------------------------------|
C|------------------------16------------12------------12-------|
G|----------12-------14--------14--12--------12--12--------12--|
C|-0--/12--------12--------------------------------------------|

F|---------------------------------------------------------|
C|--------------------16-----------------------------------|
G|------12-------14--------14--12~-------------------------|
C|-12--------12--------------------------------------------|

Outro
F|-----------------------------------------------------------------|
C|-----------------------------------------------------------------|
G|-----------------------------------------------------------------| x 3
C|-7-7-7-7-7-7-9-9-9-9-9-9-9-9-9-9-5-5-5-5-5-5-0-0-0-0-0-0-0-0-0-0-|

F|---------------------------------------------------------------------------|
C|---------------------------------------------------------------------------|
G|---------------------------------------------------------------------------|
C|-7-7-7-7-7-7-9-9-9-9-9-9-9-9-9-9-5--5--5~--------5--5--0~------------------|





10. WHAT DID YOU EXPECT

Verse I
F|-----------------------------------------------------------------|
C|-----------------------------------------------------------------|
G|-----------------------------------------------------------------|
C|-0-0-0-0-0-0-0-0-0-0-0-0-0-0-0-0-0-0-0-0-0-0-0-0-0-0-0-0-0-0-0-0-|

F|-----------------------------------------------------------------|
C|-----------------------------------------------------------------|
G|-----------------------------------------------------------------|
C|-5-5-5-5-5-5-5-5-5-5-5-5-5-5-5-5-5-5-5-5-5-5-5-5-5-5-5-5-5-5-5-5-|

F|---------------------------------------------------------------------------------|
C|---------------------------------------------------------------------------------|
G|---------------------------------------------------------------------------------|
C|-0-0-0x----0-0-0x----0-0-0x----0-0-0x----0-0-0x----0-0-0x----0-0-0x----0-0-0x----|

F|-------------------------------------------------------------------------------------|
C|-------------------------------------------------------------------------------------|
G|-------------------------------------------------------------------------------------|
C|-5-5-5x----5-5-5x----5-5-5x----5-5-5x----5-5-5x----5-5-5x----5--5--5--5--5--5--5--5--|

"Don't tell me that I'll be fine"
F|------------------------------------------------------|
C|-----7------------2-------5----4----------------------|
G|-5--------5--0---------0------------5~----------------|
C|------------------------------------------------------|

Pre-Chorus ("My broken bones are caving in")
F|-------------------------------------------------------------------------|
C|-------------------------------------------------------------------------|
G|------------------5~--------4~--------0~---------------------------------|
C|-0~-----------------------------------------------------5~---------------|

Chorus ("You'll find me burning bridges")
F|-----------------------------------------------------------------|
C|-----------------------------------------------------------------|
G|---------------------------------5-5-5-5-5-5-5-4-4-4-4-4-4-4-4-4-|
C|-0-0-0-0-0-0-0-0-0-0-0-0-0-0-0-0---------------------------------|

F|-----------------------------------------------------------------|
C|-----------------------------------------------------------------|
G|-0-0-0-0-0-0-0-0-0-0-0-0-0-0-0-0---------------------------------|
C|---------------------------------5-5-5-5-5-5-5-5-5-5-5-5-5-5-5-5-|

F|-----------------------------------------------------------------|
C|-----------------------------------------------------------------|
G|---------------------------------5-5-5-5-5-5-5-4-4-4-4-4-4-4-4-4-|
C|-0-0-0-0-0-0-0-0-0-0-0-0-0-0-0-0---------------------------------|

F|-----------------------------------------------------------------|
C|-----------------------------------------------------------------|
G|-0-0-0-0-0-0-0-0-0-0-0-0-0-0-0-0---------------------------------|
C|---------------------------------5----5----5~--------------------|

Verse II
F|-----------------------------------------------------------------|
C|-----------------------------------------------------------------|
G|-----------------------------------------------------------------|
C|-0-0-0-0-0-0-0-0-0-0-0-0-0-0-0-0-0-0-0-0-0-0-0-0-0-0-0-0-0-0-0-0-|

F|-----------------------------------------------------------------|
C|-----------------------------------------------------------------|
G|-----------------------------------------------------------------|
C|-5-5-5-5-5-5-5-5-5-5-5-5-5-5-5-5-5-5-5-5-5-5-5-5-5-5-5-5-5-5-5-5-|

F|---------------------------------------------------------------------------------|
C|---------------------------------------------------------------------------------|
G|---------------------------------------------------------------------------------|
C|-0-0-0x----0-0-0x----0-0-0x----0-0-0x----0-0-0x----0-0-0x----0-0-0x----0-0-0x----|

F|-------------------------------------------------------------------------------------|
C|-------------------------------------------------------------------------------------|
G|-------------------------------------------------------------------------------------|
C|-5-5-5x----5-5-5x----5-5-5x----5-5-5x----5-5-5x----5-5-5x----5--5--5--5--5--5--5--5--|

"Don't tell me that I'll be fine"
F|------------------------------------------------------|
C|-----7------------2-------5----4----------------------|
G|-5--------5--0---------0------------5~----------------|
C|------------------------------------------------------|


F|------------------------------------------------------|
C|-----7------------2-----------------------------------|
G|-5--------5--0----------------------------------------|
C|-----------------------0~-----------------------------|

Chorus

Bridge
F|-----------------------------------------------------------------------------------|
C|-----------------------------------------------------------------------------------|
G|---------------------------------------------------------------0-5-5-5~------------| x 2
C|-2--2--2~------------4--4--4~------------5--5--5~------------5---------------------|

"Take all I am"
F|-------------------------------------------------------------------------|
C|-------------------------------------------------------------------------|
G|-------------------------------------------------------------------------|
C|-2-2-2x---2-2-2x---2-2-2x---2-2-2x---4-4-4x---4-4-4x---4-4-4x---4-4-4x---|

F|-------------------------------------------------------------------------|
C|-------------------------------------------------------------------------|
G|-------------------------------------------------------------------------|
C|-5-5-5x---5-5-5x---5-5-5x---5-5-5x---5-5-5x---5-5-5x---5-5-5x---5-5-5x---|

F|-------------------------------------------------------------------------|
C|-------------------------------------------------------------------------|
G|-------------------------------------------------------------------------|
C|-2-2-2x---2-2-2x---2-2-2x---2-2-2x---4-4-4x---4-4-4x---4-4-4x---4-4-4x---|

F|-------------------------------------------------------------------------|
C|-------------------------------------------------------------------------|
G|-------------------------------------------------------------------------|
C|-5----5----5----5----5----5----5----5----5----5----5----5----5----5x-----|

("So take what's left of me")
F|---------------------------------------------------------------------------------|
C|---------------------------------------------------------------------------------|
G|-2----2----2----2----2----2----2----2----2----2----2----2----2----2----2----2----|
C|---------------------------------------------------------------------------------|

F|---------------------------------------------------------------------------------|
C|---------------------------------------------------------------------------------|
G|-0----0----0----0----0----0----0----0----0----0----0----0----0----0----0----0----|
C|---------------------------------------------------------------------------------|

F|---------------------------------------------------------------------------------|
C|---------------------------------------------------------------------------------|
G|---------------------------------------------------------------------------------|
C|-5----5----5----5----5----5----5----5----5----5----5----5----5----5----5----5----|

F|---------------------------------------------------------------------------------|
C|---------------------------------------------------------------------------------|
G|-0----0----0----0----0----0----0----0----0----0----0----0----0----0----0----0----|
C|---------------------------------------------------------------------------------|

F|---------------------------------------------------------------------------------|
C|---------------------------------------------------------------------------------|
G|-2----2----2----2----2----2----2----2----2----2----5----5----5----5----5----5----|
C|---------------------------------------------------------------------------------|

F|---------------------------------------------------------------------------------|
C|---------------------------------------------------------------------------------|
G|-0----0----0----0----0----0----0----0----0----0----0----0----5----5----4----4----|
C|---------------------------------------------------------------------------------|

F|---------------------------------------------------------------------------------|
C|----------------5----5----5----4------------------------5----5----4----7---------|
G|-----------5------------------------5--------------5------------------------7----|
C|-5----5----------------------------------5----5----------------------------------|

F|---------------------------------------------------------------------------------|
C|---------------------------------------------------------------------------------|
G|-0----0----0----0----0----0----0----0----0----0----0----0----0----0----0----0----|
C|---------------------------------------------------------------------------------|

Outro ("I guess I'll be fine")
F|---------------------------------------------------------------------------|
C|---------------------------------------------------------------------------|
G|-5~--------/12~--------9~--------7----5~-----------------------------------|
C|---------------------------------------------------------------------------|





11. BLANK PAGES

Intro (come in right before the verse)
F|--------------|
C|--------------|
G|-3-3-3-3-3-3--|
C|--------------|

Verse x 2
F|-----------------------------------------------------------------|
C|-----------------------------------------------------------------|
G|-4--4-4-4-4-4-4-4-4-4-4-4-4-4-4-4--4-4-4-4-4-4-4-4-4-4-4-4-4-6-7-|
C|-----------------------------------------------------------------|

F|----------------------------------------------------------|
C|----------------------------------------------------------|
G|-0--0-0-0-0-0-0-0-0-0-0-0-0-0-0-2--2-2-2-2-2-3--3-3-3-3-3-|
C|----------------------------------------------------------|

Chorus
F|----------------------------------------------------------------|
C|----------------------------------------------------------------|
G|-4-4-4-4-4-4-4-4-4-4-4-4-4-4-4-4-7-7-7-7-7-7-7-7-7-7-7-7-7-9-9--|
C|----------------------------------------------------------------|

F|--------------------------------------------------------------|
C|--------------------------------------------------------------|
G|-0-0-0-0-0-0-0-0-0-0-0-0-0-0-0-0-2-2-2-2-2-2-2-2-3-3-3-3-3-3--|
C|--------------------------------------------------------------|

F|----------------------------------------------------------------|
C|----------------------------------------------------------------|
G|-4-4-4-4-4-4-4-4-4-4-4-4-4-4-4-4-7-7-7-7-7-7-7-7-7-7-7-7-7-9-9--|
C|----------------------------------------------------------------|

F|--------------------------------------------------------------|
C|--------------------------------------------------------------|
G|-0--0-0--0~----0-0-0-0-0-0-0-0-2-2-2-2-2-2-2-2-2-3-3-3-3-3-3--|
C|--------------------------------------------------------------|

Verse x 2

"the pressure"
F|-----------------------------------------------|
C|-----------------------------------------------|
G|-4--4--4--4--4--4--4--4--4--4--4--4--4x--------|
C|-----------------------------------------------|

Chorus x 2

Bridge
F|----------------------------------------------------------------------------|
C|----------------------------------------------------------------------------|
G|-4~------------------------4x---------0~----------------2~--------3x--------|
C|----------------------------------------------------------------------------|

F|-----------------------------------------------------------------|
C|-----------------------------------------------------------------|
G|-4-4-4-4-4-4-4-4-4-4-4-4-4-4-4-4-2-4-4-4-7-7-0-0-0-0-0-0-0-0-0-0-| x 4
C|-----------------------------------------------------------------|

F|-------------------------------------------------------------------------|
C|-------------------------------------------------------------------------|
G|-4~----------------6~----------------7~----------------0~----------------|
C|-------------------------------------------------------------------------|

Final Chorus (there are major chord variations in this chorus!)
F|-----------------------------------------------------------------|
C|-----------------------------------------------------------------|
G|-4-4-4-4-4-4-4-4-4-4-4-4-4-4-4-4-2-2-2-2-2-2-2-2-2-2-2-2-2-2-2-2-|
C|-----------------------------------------------------------------|

F|-----------------------------------------------------------------|
C|-----------------------------------------------------------------|
G|-0-0-0-0-0-0-0-0-0-0-0-0-0-0-0-0-2-2-2-2-2-2-2-2-3-3-3-3-3-3-3-3-|
C|-----------------------------------------------------------------|

F|-----------------------------------------------------------------|
C|-----------------------------------------------------------------|
G|-4-4-4-4-4-4-4-4-4-4-4-4-4-4-4-4-6-6-6-6-6-6-6-6-6-6-6-6-6-6-6-6-|
C|-----------------------------------------------------------------|

F|-----------------------------------------------------------------|
C|-----------------------------------------------------------------|
G|-7-7-7-7-7-7-7-7-7-7-7-7-7-7-7-7-0-0-0-0-0-0-0-0-0-0-0-0-0-0-0-0-|
C|-----------------------------------------------------------------|

F|-----------------------------------------------------------------|
C|-----------------------------------------------------------------|
G|-4-4-4-4-4-4-4-4-4-4-4-4-4-4-4-4-2-2-2-2-2-2-2-2-2-2-2-2-2-2-2-2-|
C|-----------------------------------------------------------------|

F|--------------------------------------------------------------|
C|--------------------------------------------------------------|
G|-0-0-0-0-0-0-0-0-0-0-0-0-0-0-0-0-0-0-0-0-0-0-0-0-0~-----------|
C|--------------------------------------------------------------|





12. CANDOUR

Intro (don't play)

Verse (come in at "I have your hands") (optional)
F|-------------------------------------------------------------------------|
C|-------------------------------------------------------------------------|
G|-2~----------------------------------2~----------------------------------|
C|-------------------5~----------------------------------5~----------------|

F|-----------------------------------------------------------------------------|
C|-----------------------------------------------------------------------------|
G|-----------------------------------------------------------------------------|
C|-7~------------9--9--5~----------------7~------------9--9--5~----------------|

"I'll keep a moment sealed in time" (optional)
F|-----------------------------------------------------------------|
C|-----------------------------------------------------------------|
G|-2-2-2-2-2-2-2-2-2-2-2-2-5-5-5-5-------------------------0-0-0-0-| x 2
C|---------------------------------5-5-5-5-5-5-5-5-5-5-5-5---------|

"I think you know you won't be here forever" (optional)
F|-----------------------------------------------------------------|
C|-----------------------------------------------------------------|
G|-2-2-2-2-2-2-2-2-2-0-0-0-0-0-0-0-0-------------------------------| x 2
C|-----------------------------------0-0-0-0-0-0-0-0-0-0-0-0-0-0-0-|

Buildup w/ the rest of the band
F|-----------------------------------------------------------------|
C|-----------------------------------------------------------------|
G|-----------------------------------------------------------------|
C|-5-5-5-5-5-5-5-5-7-7-7-7-7-7-7-7-9-9-9-9-9-9-9-9-9-9-9-9-7-7-7-7-|

F|-----------------------------------------------------------------|
C|-----------------------------------------------------------------|
G|-----------------------------------------------------------------|
C|-5-5-5-5-5-5-5-5-7-7-7-7-7-7-7-7-9-9-9-9-9-9-9-9-9-9-9-9-9-------|

"I know you're proud in your own way..."
F|-----------------------------------------------------------------|
C|-----------------------------------------------------------------|
G|-----------------------------------------------------------------| x 3
C|-5-5-5-5-5-5-5-5-7-7-7-7-7-7-7-7-9-9-9-9-9-9-9-9-9-9-9-9-7-7-7-7-|

"I wish I told you yesterday"
F|-----------------------------------------------------------------|
C|-----------------------------------------------------------------|
G|-----------------------------------------------------------------|
C|-5-5-5-5-5-5-5-5-7-7-7-7-7-7-7-7-9~------------------------------|

Outro (don't play)


| /  slide up
| \  slide down
| h  hammer-on
| p  pull-off
| ~  vibrato
| +  harmonic
| x  Mute note
===============================================================================
Добавлено: 24.04.2016
Другие материалы по этой песне:
  • Аккорды и текст

Страница создана 24.04.2016
http://primanota.ru/neck-deep/wishful-thinking-album-chords.htm
Привет, Гость.
Предлагаем пройти революционный курс по гитаре.
Подарок от PrimaNota.Ru, забирай!