PrimaNota.ru - самый крупный в мире бесплатный архив песенных текстов, аккордов, табулатур и нот


Neck Deep - Kick It - таба, видео

Регистрация Запомнить меня
Войти через:  Facebook Google Twitter Vk Yandex Mail.ru

Neck Deep - Kick It - таба, видео

Печатать
Просмотров: 96
-------------------------------------------------------------------------------
                             Kick It - Neck Deep
-------------------------------------------------------------------------------

Tuning: Drop C#

Intro:

(No lyrics)

D#|-------------------------------------------------------------|
A#|-------------------------------------------------------------|
F#|-77-77--11-1111111111111111--77-77--11-11111111--12-11-12-11-|
C#|-xx-XX--x--x-x-x-x-x-x-x-x---xx-xx--x--x-x-x-x---x--x--x--x--|
G#|-55-55--9--9-9-9-9-9-9-9-9---55-55--9--9-9-9-9---10-9--10-9--|
C#|-------------------------------------------------------------|

D#|--------------------------------------------------|
A#|--------------------------------------------------|
F#|-77-77--11-1111111111111111--99-99--97--77777-----|
C#|-xx-xx--x--x-x-x-x-x-x-x-x---xx-xx--xx--xxxxx--5*-|
G#|-55-55--9--9-9-9-9-9-9-9-9---77-77--75--55555-----|
C#|--------------------------------------------------|

D#|-------------------------------------------------------------|
A#|-------------------------------------------------------------|
F#|-77-77--11-1111111111111111--77-77--11-11111111--12-11-12-11-|
C#|-xx-XX--x--x-x-x-x-x-x-x-x---xx-xx--x--x-x-x-x---x--x--x--x--|
G#|-55-55--9--9-9-9-9-9-9-9-9---55-55--9--9-9-9-9---10-9--10-9--|
C#|-------------------------------------------------------------|

D#|----------------------------------------------|
A#|----------------------------------------------|
F#|-77-77--11-1111111111111111--99-99--7--777777-|
C#|-xx-xx--x--x-x-x-x-x-x-x-x---xx-xx--x--xxxxxx-|
G#|-55-55--9--9-9-9-9-9-9-9-9---77-77--5--555555-|
C#|----------------------------------------------|

This hole is getting deeper by the day...

D#|-------------------------------------------------------------|
A#|-------------------------------------------------12-11-12-11-|
F#|-77-77--11-1111111111111111--77-77--11-11111111--x--x--x--x--|
C#|-xx-XX--x--x-x-x-x-x-x-x-x---xx-xx--x--x-x-x-x---9--8--9--8--|
G#|-55-55--9--9-9-9-9-9-9-9-9---55-55--9--9-9-9-9---------------|
C#|-------------------------------------------------------------|

D#|-----------------------------------------------|
A#|-----------------------------------------------|
F#|-77-77--11-1111111111111111--99-99--7--7777777-|
C#|-xx-xx--x--x-x-x-x-x-x-x-x---xx-xx--x--xxxxxxx-|
G#|-55-55--9--9-9-9-9-9-9-9-9---77-77--5--5555555-|
C#|-----------------------------------------------|

I'll never know where I stand...

D#|-----------------------------------------------------------------|
A#|-----------------------------------------------------------------|
F#|-777-777-777-777--6-66-666-666-666--11-1111-111111-111111-111111-|
C#|-xxx-xxx-xxx-xxx--x-xx-xxx-xxx-xxx--x--x-x--x-x-x--x-x-x--x-x-x--|
G#|-555-555-555-555--4-44-444-444-444--9--9-9--9-9-9--9-9-9--9-9-9--|
C#|-----------------------------------------------------------------|

D#|----------------------------|
A#|----------------------------|
F#|-12-1212-121212-121212--666-|
C#|-x--x-x--x-x-x--x-x-x---xxx-|
G#|-10-1010-101010-101010--444-|
C#|----------------------------|

D#|-----------------------------------------------------------------|
A#|-----------------------------------------------------------------|
F#|-777-777-777-777--6-66-666-666-666--11-1111-111111-111111-111111-|
C#|-xxx-xxx-xxx-xxx--x-xx-xxx-xxx-xxx--x--x-x--x-x-x--x-x-x--x-x-x--|
G#|-555-555-555-555--4-44-444-444-444--9--9-9--9-9-9--9-9-9--9-9-9--|
C#|-----------------------------------------------------------------|

D#|---------------------------|
A#|---------------------------|
F#|-12-1212-121212-121212--66-|
C#|-x--x-x--x-x-x--x-x-x---xx-|
G#|-10-1010-101010-101010--44-|
C#|---------------------------|

And in the end we're all just learning curves...

D#|-----------------------------------------------------------------------|
A#|-----------------------------------------------------------------------|
F#|-77777--11-12-11--111111111111111111111111--666666666666--999999999999-|
C#|-xxxxx--x--x--x---x-x-x-x-x-x-x-x-x-x-x-x---xxxxxxxxxxxx--xxxxxxxxxxxx-|
G#|-55555--9--10-9---9-9-9-9-9-9-9-9-9-9-9-9---444444444444--777777777777-|
C#|-----------------------------------------------------------------------|

D#|------------------------------------------------------|
A#|------------------------------------------------------|
F#|-11-11-11-11111111111111-11-12-11--77777777777777777~-|
C#|-x--x--x--x-x-x-x-x-x-x--x--x--x---xxxxxxxxxxxxxxxxx~-|
G#|-9--9--9--9-9-9-9-9-9-9--9--10-9---55555555555555555~-|
C#|------------------------------------------------------|
Добавлено: 01.09.2015
Другие материалы по этой песне:
  • Аккорды и текст

Страница создана 01.09.2015
http://primanota.ru/neck-deep/kick-it-chords.htm
Привет, Гость.
Предлагаем пройти революционный курс по гитаре.
Подарок от PrimaNota.Ru, забирай!