PrimaNota.ru - самый крупный в мире бесплатный архив песенных текстов, аккордов, табулатур и нот


Monkees - The Girl I Left Behind Me - текст песни, бас-таба, видео

Регистрация Запомнить меня
Войти через:  Facebook Google Twitter Vk Yandex Mail.ru

Monkees - The Girl I Left Behind Me - текст песни, бас-таба, видео

Печатать
Просмотров: 59
Tabbed by: 6METAL6BASSIST6
E-mail: petergriffinav@gmail.com

Tuning: EADG

G|----------------------------------------------------------------|
D|----------------------------------------------------------------|
A|----------------------------------------------------------------|
E|3-----------3---3-----------2---0-----------0---0-------0---3---|

G|----------------------------------------------------------------|
D|----------------------------------------------------------------|
A|----------------5-------5---------------------------------------|
E|5-----------5---------------5---3-----------3---3-----------3---|

G|----------------------------------------------------------------|
D|----------------------------1---2-----------2-------------------|
A|----------------2-------2-------------------------------0---2---|
E|2-----------2-----------------------------------3---3-----------|

0:16

G|----------------------------------------------------------------|
D|------------------------------------------------2-------2-------|
A|3-----------3---3-----------3---2-----------2---------------2---|
E|----------------------------------------------------------------|

G|------------------------------------------------------------4---|
D|------------------------------------------------2-------2-------|
A|0-----------0---5-------5---3---2-----------2-------------------|
E|----------------------------------------------------------------|

G|--------4-------2---2-------------------------------------------|
D|2-----------2---------------2-----------------------------------|
A|--------------------------------0-----------0---5-------5---3---|
E|----------------------------------------------------------------|

0:32

G|----------------------------------------------------------------|
D|----------------------------------------------------------------|
A|1-----1-1-------1-----1-1-------1-----1-1-------1-----------1---|
E|------------------------------------------------------1-1h3---3-|

G|----------------------------------------------------------------|
D|----------------------------------------------------------------|
A|1-----1-1-------1-----1-1-------1-----1-1-----1-1-----------1---|
E|------------------------------------------------------1-1h3-----|

G|----------------------------------------------------------------|
D|----------------------------------------------------------------|
A|1-----1-1-------0-----0-0---------------------------------------|
E|--------------------------------3-----3-3-------1-----1-1-------|

G|----------------------------------------------------------------|
D|1-----1-1-------1-----1-1---------------------------------------|
A|----------------------------0---5-------------------------------|
E|----------------------------------------------------------------|

0:52

G|----------------------------------------------------------------|
D|----------------------------------------------------------------|
A|------------------------------------------------------------2---|
E|3-----------3---3-----------3---3-----------3---3---3-----------|

G|----------------------------------------------------------------|
D|----------------------------------------------------------------|
A|0-----------0---5-----------5-----------------------------------|
E|--------------------------------3-----------3---3-----------3---|

G|----------------------------------------------------------------|
D|----------------------------1---2-----------2-------------------|
A|----------------2-------2-------------------------------0---2---|
E|2-----------2-----------------------------------3---3-----------|

1:09

G|----------------------------------------------------------------|
D|------------------------------------------------2---------------|
A|3-----------3---3-----------3---2-----------2---------------2---|
E|----------------------------------------------------------------|

G|----------------------------------------------------------------|
D|----------------------------------------------------------------|
A|0-----------0---5-------5---3---2-----------2-/-7-------7---7---|
E|----------------------------------------------------------------|

G|----------------------------------------------------------------|
D|----------------------------7-----------7-----------------------|
A|------------------------------------------------5-------5---3---|
E|0-----------0---5---------------5-----------5-------------------|

1:25

G|----------------------------------------------------------------|
D|----------------------------------------------------------------| x2
A|1-----1-1-------1-----1-1-------1-----1-1-----1-1-----------1---|
E|------------------------------------------------------1-1h3-----|

G|----------------------------------------------------------------|
D|------------3---------------------------------------------------|
A|1-----1-------1-0-----0-0-------------------5-------------------|
E|--------------------------------3-----3-3-------1-----1-1-------|

G|----------------------------------------------------------------|
D|1-----1-1-------1-----1-1---------------------------------------|
A|----------------------------0---5-------------------------------|
E|----------------------------------------------------------------|

1:46

G|----------------------------------------------------------------|
D|----------------------------------------------------------------|
A|----------------------------------------------------------------|
E|3-----------3---3---------------3-----------3---3---------------|

G|----------------------------------------------------------------|
D|----------------------------------------------------------------|
A|0-----------3---3-------3---3---2-----------2-/-7-------7-------|
E|------------------------------------------------------------7---|

G|--------------------------------------------4-----------4-------|
D|------------------------------------------------2---------------|
A|----------------5-------5---3---2-------------------------------|
E|5-----------5---------------------------------------------------|

G|----------------2-------2---------------2-----------------------|
D|2-----------2---------------2-----------------------------------|
A|--------------------------------0-----------0---5-------5---3---|
E|----------------------------------------------------------------|

2:08

G|----------------------------------------------------------------|
D|----------------------------------------------------------------|
A|1-----1-1-------1-----1-1-------1-----1-1-----1-1---1---1-------|
E|------------------------------------------------------------1h3-|

G|----------------------------------------------------------------|
D|----------------------------------------------------------------|
A|1-----1-1-------1-----1-1-----1-1-----1-1-----1-1-----------1---|
E|----------------------------------------------------1---1h3-----|

G|----------------------------------------------------------------|
D|----------------------------------------------------------------|
A|1-----1-1-------0-----0-0---------------------------------------|
E|--------------------------------3-----3-3-------1-----1-1-------|

G|----------------------------------------------------------------|
D|1-----1-1-------1-------1---1---0-------------------------------|
A|--------------1-------1---1-------------------------------------|
E|----------------------------------------------------------------|

G|----------------------------------------------------------------|
D|----------------------------------------------------------------|
A|------------------------------------------------------------2---|
E|3-----------3---3---------------3-----------3---3---------------|

G|----------------------------------------------------------------|
D|----------------------------------------------------------------| fades out here.
A|0-----------0---5-----------3---2-----------2-------------------|
E|------------------------------------------------3---------------|
Добавлено: 04.03.2016
Другие материалы по этой песне:
  • Аккорды и текст

Страница создана 23.09.2013
http://primanota.ru/monkees/the-girl-i-left-behind-me-chords.htm
Привет, Гость.
Предлагаем пройти революционный курс по гитаре.
Подарок от PrimaNota.Ru, забирай!