PrimaNota.ru - самый крупный в мире бесплатный архив песенных текстов, аккордов, табулатур и нот


Monkees - Shorty Blackwell - текст песни, бас-таба, видео

Регистрация Запомнить меня
Войти через:  Facebook Google Twitter Vk Yandex Mail.ru

Monkees - Shorty Blackwell - текст песни, бас-таба, видео

Печатать
Просмотров: 44
Уроки эстрадного вокала в Санкт-Петербурге
Tabbed by: 6METAL6BASSIST6
E-mail: petergriffinav@gmail.com

Tuning: EADG

0:51

G|--|
D|--|
A|--|
E|3-|

G|------------------------------------------------------------------------------------------------|
D|------------------------------------------------------------------------------------------------|
A|3-----3-----3-----3-----3-----3-----3-----3-----3-----3-----3-----3-----3-----3-----3-----3-----|
E|----------------------3-----------------------3-----------------------3-----------------------3-|

G|------------------------------------------------------------------------------------------------|
D|------------------------------------------------------------------------------------------------|
A|------------------------------------------------3-----3-----3-----3-----3-----3-----3-----3-----|
E|5-----5-----5-----5---0-1-----1-----1-----1---5-----------------------3-----------------------3-|

1:10

G|------------------------------------------------------------------------------------------------|
D|------------------------------------------------------------------------------------------------| x2
A|3-----3-----3-----3-----3-----3-----3-----------3-----3-----3-----3-----3-----3-----3-----------|
E|----------------------3-------------------3---------------------------3-------------------3-----|

G|------------------------------------------------------------------------------------------------|
D|------------------------------------------------------------------------------------------------|
A|3-----3-----3-----3-----3-----3-----3-----------3-----3-----3-----------3-----3-----3-----3-----|
E|----------------------3-------------------3-----------------------3-----------------------------|

G|------------------------------------------------|
D|------------------------------------------------|
A|3-----3-----3-----------------------------------|
E|------------------3-----3-----3-----3-----3-----|

1:42

G|------------------------------------------------------------------------------------------------|
D|------------------------------------------------------------------------------------------------|
A|3-----------3-----------3-----------3-----------3-----------3-----------3-----------3-----------|
E|------3-----------3-----------3-----------3-----------3-----------3-----------3-----------3-----|

G|------------------------------------------------------------------------------------------------|
D|------------------------------------------------------------------------------------------------|
A|3-----3-----3-----3-----3-----3-----3-----3-----3-----------------------------------------------|
E|----------------------------------------------------------------------------------------------3-|

2:02

G|------------------------------------------------------------------------------------------------|
D|------------------------------------------------------------------------------------------------|
A|3-----3-----3-----3-----3-----3-----3-----3-----3-----3-----3-----3-----3-----3-----3-----3-----|
E|----------------------3-----------------------3-----------------------3-----------------------3-|

G|------------------------------------------------------------------------------------------------|
D|------------------------------------------------------------------------------------------------|
A|------------------------------------------------3-----3-----3-----3-----3-----3-----3-----3-----|
E|5-----5-----5-----5---0-1-----1-----1-----1---5-----------------------3-----------------------3-|

2:21

G|----------------------------------------------------------------|
D|2---------------------------------------------------------------|
A|----------------------------------------------------------------|
E|----------------------------------------------------------------|

G|----------------------------------------------------------------|
D|----------------------------------------------------------------|
A|----------------------------------------------------------------|
E|----------------------------------------------------------------|

G|----------------------------------------------------------------|
D|------------7-------7-----------------------7-------7-------7---|
A|--------7-------------------7-----------7---------------7-------|
E|5-------------------------------5-------------------------------|

G|----------------------------------------------------------------|
D|----------------------------------------------------------------|
A|7---------------------------------------------------------------|
E|----------------------------------------------------------------|

G|----------------------------------------------------------------|
D|--------------------------------------------------------5-------|
A|--------------------------------7-------7-------7---------------|
E|------------------------------------------------------------3---|



3:25

G|------------------------------------------------------------------------------------------------|
D|------------------------------------------------------------------------------------------------|
A|----2---5-------2---5-------2---5-------2---5-------2---5-------2---5-------2---5-------2---5---|
E|3-----------3-----------3-----------3-----------3-----------3-----------3-----------3-----------|

G|------------------------------------------------------------------------------------------------|
D|--------2-----------2-----------2-----------2-----------2-----------2-----------2-----------2---|
A|----3-----------3-----------3-----------3-----------3-----------3-----------3-----------3-------|
E|5-----------5-----------5-----------5-----------5-----------5-----------5-----------5-----------|

G|------------------------------------------------------------------------------------------------|
D|--------------------------------------------------------2-----------2-----------2-----------2---|
A|----2---5-------2---5-------2---5-------2---5-------3-----------3-----------3-----------3-------|
E|3-----------3-----------3-----------3-----------5-----------5-----------5-----------5-----------|

G|------------------------------------------------|
D|--------2-----------2-----------2-----------2---|
A|----3-----------3-----------3-----------3-------|
E|5-----------5-----------5-----------5-----------|

3:52

G|------------------------------------------------------------------------------------------------|
D|------------5-----------------------------------------------------------------------------------|
A|----2---5-------2---5-------2---5-------2---5-------2---5-------2---5-------2---5-------2---5---|
E|3-----------------------3-----------3-----------3-----------3-----------3-----------3-----------|

G|------------------------------------------------------------------------------------------------|
D|------------------------------------5-----------------------------------------------------------|
A|----2---5-------2---5-------2---5-------2---5-------2---5-------2---5-------2---5-------2---5---|
E|3-----------3-----------3-----------------------3-----------3-----------3-----------3-----------|

G|--------------------------------------------------------------------------------------------------------|
D|--------------------------------------------------------------------------------------------------------|
A|--------------------------------------------------------------------------------------------------------|
E|3---------------------------------------------------------------------------------------------------3---|

G|------------------------------------------------------------------------------------------------|
D|------------------------------------------------------------------------------------------------|
A|3-----------3-----------3-----------3-----------3-----------3-----------3-----------3-----------|
E|--------------------------------------------3-----------------------------------------------3---|

4:22

G|------------------------------------------------------------------------------------------------|
D|------------------------------------------------------------------------------------------------| x2
A|3-----------3-----------3-----------3-----------3-----------3-----------3-----------3-----------|
E|--------------------------------------------3-----------------------------------------------3---|

G|------------------------------------------------------------------------------------------------|
D|------------------------------------------------------------------------------------------------|
A|------------------------------------------------------------------------------------------------|
E|5-----------5-----------5-----------5-------0---1-----------1-----------1-----------1-------5---|

4:39

G|------------------------------------------------------------------------------------------------|
D|------------------------------------------------------------------------------------------------|
A|3-----------3-----------3-----------3-----------3-----------3-----------3-----------3-----------|
E|--------------------------------------------3-----------------------------------------------3---|

G|------------------------------------------------------------------------------------------------|
D|------------------------------------------------------------------------------------------------| x2
A|3-----------3-----------3-----------3-----------3-----------3-----------3-----------3-----------|
E|------------------------------------------------------------------------------------------------|

4:57 until fadeout.

G|------------------5-----7-----------------------------------|
D|------2-----5-----------------------------------3-----5-----| x3
A|3-----------------------------------0-----3-----------------|
E|------------------------------1-----------------------------|

G|------------------------------|
D|------------------5-----7-----|
A|------2-----5-----------------|
E|3-----------------------------|
Добавлено: 13.10.2017
Другие материалы по этой песне:
  • Аккорды и текст

Страница создана 04.08.2013
http://primanota.ru/monkees/shorty-blackwell-chords.htm
Привет, Гость.
Предлагаем пройти революционный курс по гитаре.
Подарок от PrimaNota.Ru, забирай!