PrimaNota.ru - самый крупный в мире бесплатный архив песенных текстов, аккордов, табулатур и нот


Monkees - Merry Go Round - текст песни, бас-таба, видео

Регистрация Запомнить меня
Войти через:  Facebook Google Twitter Vk Yandex Mail.ru

Monkees - Merry Go Round - текст песни, бас-таба, видео

Печатать
Просмотров: 33
Уроки эстрадного вокала в Санкт-Петербурге
Tabbed by: 6METAL6BASSIST6
E-mail: petergriffinav@gmail.com

Tuning: EADG

G|------------------------------------------------------------------------------------------------|
D|------------------------------------------------------------------------------------------------|
A|10----------------------10----------------------10----------------------10----------------------|
E|------------------------------------------------------------------------------------------------|

G|------------------------------------------------------------------------------------------------|
D|------------------------------------------------------------------------------------------------|
A|8-----------------------8-----------------------8-----------------------8-----------------------|
E|------------------------------------------------------------------------------------------------|

G|--------------------------------------------------------------------------------------------------------|
D|--------------------------------------------------------------------------------------------------------|
A|6-----------------------6-----------------------5-----------------------5-------------------------------|
E|--------------------------------------------------------------------------------------------------------|

0:25

G|------------------------------------------------------------------------------------------------|
D|------------------------------------------------------------------------------------------------|
A|10----------------------10----------------------10----------------------10----------------------|
E|------------------------------------------------------------------------------------------------|

G|------------------------------------------------------------------------------------------------|
D|------------------------------------------------------------------------------------------------|
A|8-----------------------8-----------------------8-----------------------8-----------------------|
E|------------------------------------------------------------------------------------------------|

G|----------------------------------------------------------------------------------------------------------|
D|----------------------------------------------------------------------------------------------------------|
A|6-----------------------6-----------------------5-----------------------5---------------------------------|
E|----------------------------------------------------------------------------------------------------------|

0:48

G|------------------------------------------------------------------------|
D|--------------7-9-10----------------8-----------------8-----------8-----|
A|10----------10----------------------------------8-----------------------|
E|------------------------------------------------------------------------|

G|------------------------------------------------------------7-------------------------|
D|6-----------------6-----------6-------------------------7-----------------------------|
A|----------------6-------------------5---------------------------------------5-----/---|
E|--------------------------------------------------------------------------------------|

1:02

G|------------------------------------------------------------------------|
D|--------------7-9-10----------------8-----------------8-----------8-----|
A|10----------10----------------------------------8-----------------------|
E|------------------------------------------------------------------------|

G|------------------------------------------------------------7-----------------------------------|
D|6-----------------6-----------6---------------------7-----------------------------7---------/---|
A|----------------6-------------------5-----------------------------------------------------------|
E|------------------------------------------------------------------------------------------------|

1:17

G|------------------------------------------------------------------------------------------------|
D|------------------------------------------------------------------------------------------------|
A|10----------------------10----------------------10----------------------10----------------------|
E|------------------------------------------------------------------------------------------------|

G|------------------------------------------------------------------------------------------------|
D|------------------------------------------------------------------------------------------------|
A|8-----------------------8-----------------------8-----------------------8-----------------------|
E|------------------------------------------------------------------------------------------------|

G|--------------------------------------------------------------------------------------------7---|
D|----------------------------------------------------------------------------------------7-------|
A|6-----------------------6-----------------------5-----------------------5-----------------------|
E|------------------------------------------------------------------------------------------------|
Добавлено: 13.10.2017
Другие материалы по этой песне:
  • Аккорды и текст

Страница создана 24.12.2013
http://primanota.ru/monkees/merry-go-round-chords.htm
Привет, Гость.
Предлагаем пройти революционный курс по гитаре.
Подарок от PrimaNota.Ru, забирай!