PrimaNota.ru - самый крупный в мире бесплатный архив песенных текстов, аккордов, табулатур и нот


Monkees - Mommy And Daddy - текст песни, бас-таба, видео

Регистрация Запомнить меня
Войти через:  Facebook Google Twitter Vk Yandex Mail.ru

Monkees - Mommy And Daddy - текст песни, бас-таба, видео

Печатать
Просмотров: 51
Уроки эстрадного вокала в Санкт-Петербурге
Tabbed by: 6METAL6BASSIST6
E-mail: petergriffinav@gmail.com

Tuning: EADG

0:05

G|----------------------------------------------------------------|
D|5-------5-------5---5-----------5-------5-------5---5-----------|
A|----------------------------------------------------------------|
E|----------------------------------------------------------------|

G|----------------------------------------------------------------|
D|5-------5-------5---8---7---6---5---6---5---6---5---5-----------|
A|----------------------------------------------------------------|
E|----------------------------------------------------------------|

0:13

G|----------------------------------------------------------------|.
D|5---------------5---------------5-------5-------5-----------5---|.
A|--------------------------------------------------------------5-|.
E|----------------------------------------------------------------|.
                                                                   . x4
G|----------------------------------------------------------------|.
D|----------------------------------------------------------------|.
A|----------------------------------------------------------------|.
E|3-------3-------3-------3-------3-------3-------3-------3-------|.

0:46

G|----------------------------------------------------------------|
D|5---5-----------5-------5-------5---5-----------5-------5-------| x2
A|----------------------------------------------------------------|
E|----------------------------------------------------------------|

G|----------------|
D|5---5-----------|
A|----------------|
E|----------------|

0:56

G|----------------------------------------------------------------|
D|5-----------------------------------------------------------5---|
A|--------------------------------------------------------------5-|
E|----------------------------------------------------------------|

G|----------------------------------------------------------------|
D|----------------------------------------------------------------|
A|----------------------------------------------------------------|
E|3-------3-------3-------3-------3-------3-------3-------3-------|

G|----------------------------------------------------------------|
D|5---------------5---------------5-------5-------5-----------5---|
A|--------------------------------------------------------------5-|
E|----------------------------------------------------------------|

G|----------------------------------------------------------------|
D|----------------------------------------------------------------|
A|----------------------------------------------------------------|
E|3-------3-------3-------3-------3-------3-------3-------3-------|


1:12

G|----------------------------------------------------------------|
D|5---------------5---------------5-------------------------------|
A|----------------------------------------------------------------|
E|----------------------------------------------------------------|

G|----------------------------------------------------------------|
D|----------------5---3-----------------------3---5---7---5---3---|
A|------------------------5---3---1-------5-----------------------|
E|----------------------------------------------------------------|

G|----------------------------------------------------------------|
D|5---------------------------------------------------------------|
A|----------------------------------------------------------------|
E|----------------------------------------------------------------|

G|----------------------------------------------------------------|
D|5---------------5-----------2---5---2---------------------------|
A|--------5---------------5---------------5---2-----------5-------|
E|------------------------------------------------3---------------|

1:28

G|----------------------------------------------------------------|
D|5---------------5-------4-------2---------------2-------2-----/-|
A|--------5-------------------------------2-----------------------|
E|----------------------------------------------------------------|

G|----------------------------------------------------------------|
D|5---------------5-------4-------2---------------2-------2-------|
A|--------5-------------------------------2-------------2-----5---|
E|----------------------------------------------------------------|

G|----------------------------------------------------------------|
D|----------------------------------------------------------------|
A|3---------------3-------3---5---6---------------6-------6---8---|
E|--------3-------------3-----------------6-------------6---------|

G|----------------------------------------------------------------|
D|----------------------------------------------------------------|
A|10------------10--------10--9---7-------------7---------7---9---|
E|--------10----------10------------------7-----------7-----------|

1:44

G|---------------------------------------------------------------------|
D|-----------------------------9-9-9-------------------------/-9---9---|
A|10----10-10--10--10-10-10-10---------7-----7-----7---7---------------|
E|---------------------------------------------------------------------|

G|--------------------12--11--9--------------------------------------|
D|----------------------------------------------------9---12--9------|
A|10-10-10-10-10--10--------------10--7-----7-----7--------------10--|
E|-------------------------------------------------------------------|

G|-------------------------12--------------------------9-----------|
D|-----------------------------12----------------------------------|
A|10----10----10--10-10------------7-----7-----7---7-------7---9---|
E|-----------------------------------------------------------------|

G|--------------------------12-11------------------------------------|
D|-------------------------------12----------------------------------|
A|10----10----10--10-10-10-----------7-----7---------7---5---7---9---|
E|-------------------------------------------------------------------|

G|--------------------------12-11------------------------------------|
D|-------------------------------12----------------------------------|
A|10----10----10--10-10-10-----------7-----7-----7---7---5---7---9---|
E|-------------------------------------------------------------------|

G|--------------------------------------------------------------------------------|
D|--------------------9-9-9-------------------------------------------------------| fades out here.
A|10----10----10--10----------5---7-----7-----7-----7---7-7---9---10----10----10--|
E|--------------------------------------------------------------------------------|
Добавлено: 13.10.2017
Другие материалы по этой песне:
  • Аккорды и текст

Страница создана 17.08.2013
http://primanota.ru/monkees/mommy-and-daddy-chords.htm
Привет, Гость.
Предлагаем пройти революционный курс по гитаре.
Подарок от PrimaNota.Ru, забирай!