PrimaNota.ru - самый крупный в мире бесплатный архив песенных текстов, аккордов, табулатур и нот


Monkees - You Can't Tie A Mustang Down - текст песни, бас-таба, видео

Регистрация Запомнить меня
Войти через:  Facebook Google Twitter Vk Yandex Mail.ru

Monkees - You Can't Tie A Mustang Down - текст песни, бас-таба, видео

Печатать
Просмотров: 29
Уроки эстрадного вокала в Санкт-Петербурге
Tabbed by: 6METAL6BASSIST6
E-mail: petergriffinav@gmail.com

Tuning: EADG

G|----------------------------------------------------------------|
D|----------------------------------------------------------------|
A|----------------3---5---0---3-------------------3---5---0---3---|
E|1-------------------------------1-------------1-----------------|

G|----------------------------------------------------------------|
D|--------------------------------------------3---1---------------|
A|----------------3---5---0---3-----------------------3---1---0---|
E|1-------------1-----------------1-------------------------------|

0:10

G|----------------------------------------------------------------|
D|----------------------------------------------------------------|
A|----------------3---5---0---3-------------------3---5---0---3---|
E|1-------------1-----------------1-------------------------------|

G|----------------------------------------------------------------|
D|------------------------------------------------3---5-------3---|
A|----------------3---5---0---3---------------------------5-------|
E|1-------------1-----------------1-------------------------------|

G|----------------------------------------------------------------|
D|----------------3---5-------3-----------------------------------|
A|1-------------1---------5-------1---------------3---5---0---3---|
E|----------------------------------------------------------------|

G|----------------------------------------------------------------|
D|----------------------------------------------------------------|
A|----------------3---5---0---3-------------------3---5---0---3---|
E|1-------------1-----------------1-------------1-----------------|

G|----------------------------------------------------------------|
D|--------3-------------------------------------------------------|
A|------------3---6---5---3-----------------------3---5---0---3---|
E|1---------------------------1-1-1-------------1-----------------|

0:31

G|----------------------------------------------------------------|
D|----------------3---5-------3-------------------5---7-------5---|
A|1-------------1---------5-------3-------------3---------7-------|
E|----------------------------------------------------------------|

G|----------------------------------------------------------------|
D|3-----------3---1---0-------------------------------------------|
A|------------------------3---0-------------------3---5---0---3---|
E|--------------------------------1-------------1-----------------|

G|----------------------------------------------------------------|
D|----------------3---5-------5---3-------------------------------|
A|1-------------1---------5-------------------5---3---------------|
E|------------------------------------------------------------1---|

G|----------------------------------------------------------------|
D|----------------------------------------3-----------------------|
A|----------------3---5---0---3---------------3---6-6-3---1---0---|
E|1-------------1-----------------1-------------------------------|

0:48

G|----------------------------------------------------------------|
D|----------------------------------------------------------------|
A|----------------3---5---0---3-------------------3---5---0---3---|
E|1-------------1-----------------1-------------1-----------------|

G|----------------------------------------------------------------|
D|------------------------------------------------3---5-------3---|
A|----------------3---5---0---3---------------------------5-------|
E|1-------------1-----------------1-------------------------------|

G|----------------------------------------------------------------|
D|----------------3---5-------3-----------------------------------|
A|1-------------1---------5-------1-------------1-3---5---0---3---|
E|----------------------------------------------------------------|

G|----------------------------------------------------------------|
D|----------------------------------------------------------------|
A|----------------3---5---0---3-------------------3---5---0---3---|
E|1-------------1-----------------1-------------1-----------------|

1:06

G|----------------------------------------------------------------|
D|----------------------------------------------------------------|
A|----------------3---5---0---3-------------------3---5---0---3---|
E|1-------------1-----------------1-------------1-----------------|

G|----------------------------------------------------------------|
D|------------------------------------------------3---5-------3---|
A|----------------3---5---0---3-----------------1---------5-------|
E|1-------------1-----------------1-------------------------------|

G|----------------------------------------------------------------|
D|----------------3---5-------3-----------------------------------|
A|1-------------1---------5-------1-------------1-3---5---0---3---|
E|----------------------------------------------------------------|

G|----------------------------------------------------------------|
D|------------------------------------------------3---------------|
A|----------------3---5---0---3-----------------------0---3-------|
E|1-------------1-----------------1---------------------------1---|

1:24

G|----------------------------------------------------------------|
D|----------------------------------------------------------------|
A|----------------0---3-----------------------3---5---3-----------|
E|1---------------------------1---1---------------------------1---|

G|----------------------------------------------------------------|
D|----------------3---5-------3-------------------5---7-------5---|
A|1-------------1---------5-------3-------------3---------7-------|
E|----------------------------------------------------------------|

G|----------------------------------------------------------------|
D|3---------------------------------------------------------------|
A|------------3---6---5---3-----------------------3---5---0---3---|
E|----------------------------1---1-------------1-----------------|

G|----------------------------------------------------------------|
D|----------------3---5-------3---3-------------------------------|
A|--------------1---------5-------------------5---3---------------|
E|------------------------------------------------------------1---|

G|----------------------------------------------------------------|
D|--------------------------------3-----------3---1---0-----------|
A|----------------3---3-------3---------------------------3-------|
E|1-------------1---------------------------------------------1---|

1:45

G|----------------------------------------------------------------|
D|----------------3---3-------------------------------------------|
A|--------------3-------------3-------------------3---5---0---3---|
E|1-------------------------------1-------------1-----------------|

G|----------------------------------------------------------------|
D|----------------------------------------------------------------|
A|----------------3---5---0---3-------------------3---3---5---3---|
E|1-------------1-----------------1-------------1-----------------|

1:54

G|----------------------------------------------------------------|
D|----------------------------------------------------------------|
A|----------------3---5---0---3-------------------3---5---0---3---|
E|1-------------1-----------------1-------------1-----------------|

G|----------------------------------------------------------------|
D|------------------------------------------------3---5-------3---|
A|----------------3---5---0---3-----------------1---------5-------|
E|1-------------1-----------------1-------------------------------|

G|----------------------------------------------------------------|
D|----------------3---5-------3-------------------3---5-------3---|
A|1-------------1---------5-------1-------------1---------5-------|
E|----------------------------------------------------------------|

G|----------------------------------------------------------------|
D|----------------------------------------------------------------|
A|----------------3---5---0---3-------------------3---5---0---3---|
E|1-------------1-----------------1-------------1-----------------|

G|----------------------------------------------------------------|
D|--------3-------------------------------------------------------|
A|------------3---6-6-3---1---0-------------------3---5---0---3---|
E|1-------------------------------1-------------1-----------------|

2:15

G|----------------------------------------------------------------|
D|----------------3---5-------3-------------------5---7-------5---|
A|1-------------1---------5-------3-------------3---------7-------|
E|----------------------------------------------------------------|

G|----------------------------------------------------------------|
D|3---------------------------------------------------------------|
A|------------3---6---5---3-----------------------3---5---0---3---|
E|----------------------------1---1-------------1-----------------|

G|----------------------------------------------------------------|
D|----------------3---5-----------3-------------------------------|
A|1-------------1---------5-------------------5---3---------------|
E|------------------------------------------------------------1---|

G|----------------------------------------------------------------|
D|----------------------------------------3-----------------------|
A|----------------3---5---0---3---------------3---6---3---1---0---|
E|1-------------1-----------------1-------------------------------|

2:33

G|----------------------------------------------------------------|
D|----------------------------3-------------------0---3---5-------|
A|----------------3---3---5-------1-------------1-------------5---|
E|1-------------1-------------------------------------------------|

G|----------------------------------------------------------------|
D|----------------5---7-------5---3-------------------------------|
A|3-------------3---------7-------------------3---6-6-3---1---0---|
E|----------------------------------------------------------------|

G|----------------------------------------------------------------|
D|------------------------------------------------3---5-------3---|
A|----------------3---5---0---3---1-------------1---------5-------|
E|1-------------1-------------------------------------------------|

G|----------------------------------------------------------------|
D|3---------------------------------------------------------------|
A|------------5---3-------1---0-------------------3---5---0---3---|
E|--------------------------------1-------------1-----------------|

G|------------------------------------|
D|--------3---------------------------| fades out here.
A|------------3---6---3---1---0-------|
E|1-------------------------------1---|
Добавлено: 13.10.2017
Другие материалы по этой песне:
  • Аккорды и текст

Страница создана 23.01.2014
http://primanota.ru/monkees/you-cant-tie-a-mustang-down-chords.htm
Привет, Гость.
Предлагаем пройти революционный курс по гитаре.
Подарок от PrimaNota.Ru, забирай!