PrimaNota.ru - самый крупный в мире бесплатный архив песенных текстов, аккордов, табулатур и нот


Monkees - I WON'T BE THE SAME WITHOUT HER - текст песни, бас-таба, видео

Регистрация Запомнить меня
Войти через:  Facebook Google Twitter Vk Yandex Mail.ru

Monkees - I WON'T BE THE SAME WITHOUT HER - текст песни, бас-таба, видео

Печатать
Просмотров: 25
Уроки эстрадного вокала в Санкт-Петербурге
Tabbed by: 6METAL6BASSIST6
E-mail: petergriffinav@gmail.com

Tuning: EADG

G|----------------------------------------------------------------|
D|--------------------------------5---3---------------------------|
A|5-----------5---5---------------------------5-------3-------7---|
E|----------------------------------------------------------------|

G|----------------------------------------------------------------|
D|--------------------------------5---3---------------------------|
A|5-----------5---5---------------------------5-------3-------1---|
E|----------------------------------------------------------------|

G|--------------------------------|
D|--------------------------------|
A|------------------------10\-----|
E|3---------------3---------------|

0:09

G|----------------------------------------------------------------|
D|----------------------------------------------------------------|
A|5-----------5---5---------------5-----------5---5---------------|
E|----------------------------------------------------------------|

G|----------------------------------------------------------------|
D|----------------------------------------------------------------|
A|--------------------------------------------------------10\-----|
E|3-----------3---3---------------3-----------3---3---------------|

G|----------------------------------------------------------------|
D|----------------------------------------------------------------|
A|5-----------5---5---------------5-----------5---5---------------|
E|----------------------------------------------------------------|

G|----------------------------------------------------------------|
D|----------------------------------------------------------------|
A|----------------------------------------------------------------|
E|3-----------3---3---------------3-----------3---3-------3-------|

0:26

G|----------------------------------------------------------------|
D|----------------------------------------------------------------|
A|----------------------------------------------------------------|
E|5---------------------------5---5-----------------------7-\-----|

G|----------------------------------------------------------------|
D|----------------------------------------------------------------|
A|------------------------------------------------7-------7-------|
E|0---------------------------0---0-------------------------------|

0:36

G|----------------------------------------------------------------|
D|------------------------------------------------5-------5-------|
A|5-------5-------5-------5---------------------------------------|
E|--------------------------------3-------------------------------|

G|----------------------------------------------------------------|
D|----------------------------------------------------------------|
A|5---------------5-------5---------------------------------------|
E|--------------------------------3-------3-------3-------3-------|

G|----------------------------------------------------------------|
D|3-------3-------3-------3---------------------------------------|
A|--------------------------------5-----------------------10\-----|
E|------------------------------------------------3---------------|

0:47

G|----------------------------------------------------------------|
D|----------------------------------------------------------------|
A|5-----------5---5---------------5-----------5---5---------------|
E|----------------------------------------------------------------|

G|----------------------------------------------------------------|
D|----------------------------------------------------------------|
A|--------------------------------------------------------10\-----|
E|3-----------3---3---------------3-----------3---3---------------|

G|----------------------------------------------------------------|
D|----------------------------------------------------------------|
A|5-----------5---5---------------5-----------5---5---------------|
E|----------------------------------------------------------------|

G|----------------------------------------------------------------|
D|----------------------------------------------------------------|
A|----------------------------------------------------------------|
E|3-----------3---3---------------3-----------3---3-------3-------|

1:02

G|----------------------------------------------------------------|
D|----------------------------------------------------------------|
A|----------------------------------------------------------------|
E|5---------------------------5---5-----------------------7-\-----|

G|----------------------------------------------------------------|
D|----------------------------------------------------------------|
A|------------------------------------------------7-------7-------|
E|0---------------------------0---0-------------------------------|

1:10

G|----------------------------------------------------------------|
D|------------------------------------------------5-------5-------|
A|5-------5-------5-------5---------------------------------------|
E|--------------------------------3-------------------------------|

G|----------------------------------------------------------------|
D|----------------------------------------------------------------|
A|5-------5-------5-------5---------------------------------------|
E|--------------------------------3-------3-------3-------3-------|

G|----------------------------------------------------------------|
D|3-------3-------3-------3---------------------------------------|
A|--------------------------------5-------5-------5-------5-------|
E|----------------------------------------------------------------|

1:22

G|----------------------------------------------------------------|
D|----------------------------------------------------------------|
A|----------------------------------------------------------------|
E|3-----------3---3---------------3-----------3---3---------------|

G|----------------------------------------------------------------|
D|----------------------------------------------------------------|
A|3-----------3---3---------------3-----------3---3-------7-------|
E|----------------------------------------------------------------|

G|----------------------------------------------------------------|
D|----------------------------------------------------------------|
A|5-----------5---5---------------5-----------5---5---------------|
E|----------------------------------------------------------------|

G|----------------------------------------------------------------|
D|5-----------5---5---------------5---3---------------------------|
A|----------------------------5---------------5-------3-------1---|
E|----------------------------------------------------------------|

1:38

G|----------------------------------------------------------------|
D|----------------------------------------------------------------|
A|----------------------------------------------------------------|
E|3-----------3---3---------------3-----------3---3---------------|

G|----------------------------------------------------------------|
D|----------------------------------------------------------------|
A|3-----------3---3---------------3---------------3-------10\-----|
E|----------------------------------------------------------------|

1:47

G|----------------------------------------------------------------|
D|----------------------------------------------------------------| x2
A|5-------5-------5-------5---------------------------------------|
E|--------------------------------3-------3-------3-------3-------|

G|----------------------------------------------------------------|
D|3-------3-------3-------3---------------------------------------|
A|--------------------------------5-----------------------10\-----|
E|------------------------------------------------3---------------|

1:58

G|----------------------------------------------------------------|
D|----------------------------------------------------------------|
A|5-----------5---5---------------5-----------5---5---------------|
E|----------------------------------------------------------------|

G|----------------------------------------------------------------|
D|----------------------------------------------------------------|
A|--------------------------------------------------------10\-----|
E|3-----------3---3---------------3-----------3---3---------------|

G|----------------------------------------------------------------|
D|----------------------------------------------------------------|
A|5-----------5---5---------------5-----------5---5---------------|
E|----------------------------------------------------------------|

G|----------------------------------------------------------------|
D|----------------------------------------------------------------|
A|----------------------------------------------------------------|
E|3-----------3---3---------------3-----------3---3-------3-------|

2:14

G|----------------------------------------------------------------|
D|----------------------------------------------------------------|
A|----------------------------------------------------------------|
E|5---------------------------5---5-----------------------7-\-----|

G|----------------------------------------------------------------|
D|----------------------------------------------------------------|
A|------------------------------------------------7-------7-------|
E|0---------------------------0---0-------------------------------|

2:22

G|----------------------------------------------------------------|
D|--------------------------------------------------------5-------|
A|5-------5-------5-------5---------------------------------------|
E|--------------------------------3-------3-------3---------------|

G|----------------------------------------------------------------|
D|----------------------------------------------------------------|
A|5-------5-------5-------5---------------------------------------|
E|--------------------------------3-------3-------3-------3-------|

G|----------------------------------------------------------------|
D|3-------3-------3-------3-------5---3---------------------------|
A|--------------------------------------------5-------3-------1---|
E|----------------------------------------------------------------|

G|--------------------------------|
D|--------------------------------|
A|--------------------------------|
E|3-------------------------------|
Добавлено: 13.10.2017
Другие материалы по этой песне:
  • Аккорды и текст

Страница создана 04.08.2013
http://primanota.ru/monkees/i-wont-be-the-same-without-her-chords.htm
Привет, Гость.
Предлагаем пройти революционный курс по гитаре.
Подарок от PrimaNota.Ru, забирай!