PrimaNota.ru - самый крупный в мире бесплатный архив песенных текстов, аккордов, табулатур и нот


Misc - Instrumental - таба, видео

Регистрация Запомнить меня
Войти через:  Facebook Google Twitter Vk Yandex Mail.ru

Misc - Instrumental - таба, видео

Печатать
Просмотров: 48
-------------------------------------------------------------------------------
                             instrumental - Misc
-------------------------------------------------------------------------------
Tabbed by:
E-mail:

Tuning: Standard (EBGDAE)
Start
e|---------------------------------------------------------------------------------|
B|---------------------------------------------------------------------------------|
G|---------------------------------------------------------------------------------|
D|------------------------------/8---8-------10-/5---5-------7------------------7\-|
A|-6-5-6-5-3/5--6---6--------------7---7-7h8-------4---4-4h5--------------------7\-|
E|----------------5---5-3-0-1/3--------------------------------/6-5-3-5-6-5-0-3-5\-|

e|-------------------------------------------------------------------------------------|
B|-------------------------------------------------------------------------------------|
G|-------------------------------------------------------------------------------------|
D|-----------------8-7-----------7---------7-6-4---------3---------3-3p2p0-----------2-|
A|-8-7-----8-7---------5-7-------7-------5-------6-4-3---3-------1---------5p3p2-----2-|
E|-----5-7-----5-7---------8-7-3-5-55555---------------4-1-11111-----------------4p3-0-|

e|---------------------------------------------------------------------------------------------------------|
B|---------------------------------------------------------------------------------------------------------|
G|-----------------------------------15--------------------------------------------------------------------|
D|-/15----------15-------15-------------/17-15-14-------------------------15\14\12/17--------12------------|
A|-----13-12-13----13-12----13-12-13--------------17-15-14-------12-------13\12\10/15-/15-14----------12~\-|
E|---------------------------------------------------------15-14----14-12-----------------------15-14------|

e|--------------------------------------------------------------------------------------|
B|--------------------------------------------------------------------------------------|
G|--------------------------------------------------------------------------------------|
D|---------------------------------6--------7---------------------------11-----------12-|
A|---------------------------4-5-7---/5-6-8--------------------/9-10-12----/10-11-13----|
E|-00-0000--00-0000--00-0000------------------00-0000--00-0000--------------------------|

e|-----------------------------------------------------------------------------------------------|
B|-----------------------------------------------------------------------------------------------|
G|--------------------------------------------------------------------------------15*------------|
D|--------------------------12h13p12-------------------------------------------16----------------|
A|-----------------------------------15p13p12----12----------------------14/16--------10-9-7-9-4-|
E|-00-0000--00-0000-00-0000-------------------13----12~-00-0000--00-0000--------------8--7-5-7-2-|

e|---------------------------------------------------------------------------------|
B|---------------------------------------------------------------------------------|
G|-/9-9--7---7-/10-9-----9-----6*--------------------------------------------------|
D|---------9---------6h7---6h7--------------------------7-----4*--------5----------|
A|---------------------------------/7-7--5---5-/8-7-----7-----4-------7---6h7-77/9-|
E|-----------------------------------------7--------4h5---4h5----/5-8---------55/7-|

e|------------------------------------------------------------------------------------------|
B|------------------------------------------------------------------------------------------|
G|-----------9------------9--99\8----------9-9\8--------------------------------------------|
D|-----------9------------9--99\8----------9-9\8---------3--------------5\4---------3-------|
A|-----------7------------7--77\6----------7-7\6-----3-5---5-3-5-5------5\4-----2-4---4-2-4-|
E|-000000000---xxxxxxxxxx---------00000000-------3-6-------------33333333\2-2-4-------------|

e|---------------------------------------------------------------------------------------|
B|---------------------------------------------------------------------------------------|
G|---------------------------------------------------4*----------------------------------|
D|------------------------/6-5-----6-5---------5---5----4h5p4---4-------6-----6-3-----2\-|
A|-/88887777-------------------3-5-----3/5---5---3------------7---7p5p4-6-----6-3-----2\-|
E|-----------333355556666--------------1/3-3----------------------------4-000-4-1-000-0\-|
PM  ******** ************

************************************

| /   slide up
| \   slide down
| h   hammer-on
| p   pull-off
| ~   vibrato
| +   harmonic
| x   Mute note
| b   Bend
| pb  Pre-bend
| br  Bend release
| pbr Pre-bend release
| brb Bend release bend

************************************
Добавлено: 12.11.2015
Другие материалы по этой песне:
  • Аккорды и текст

Страница создана 12.11.2015
http://primanota.ru/misc/instrumental-chords.htm
Привет, Гость.
Предлагаем пройти революционный курс по гитаре.
Подарок от PrimaNota.Ru, забирай!