PrimaNota.ru - самый крупный в мире бесплатный архив песенных текстов, аккордов, табулатур и нот


Misc - Seamless - таба, видео

Регистрация Запомнить меня
Войти через:  Facebook Google Twitter Vk Yandex Mail.ru

Misc - Seamless - таба, видео

Печатать
Просмотров: 70
Уроки эстрадного вокала в Санкт-Петербурге
-------------------------------------------------------------------------------
                            Seamless  - misc
-------------------------------------------------------------------------------
Tabbed by:
E-mail:

Tuning: Standard (ebgdae)
Intro/Chorus
e|------------------------------------------------------------------------------------|
B|------------------------------------------------------------------------------------|
G|------------------------------------------------------------------------------------|
D|-5-7-8--10-8-7-3-5--------3-5-6-5-3-5--------5-7-8--10-8-7-3-5--------------------2-|
A|-3-5-6--8--6-5-1-3-xx-xxx-1-3-4-3-1-3-xx-xxx-3-5-6--8--6-5-1-3-xx-xxx-3-5-6-5-3-5-2-|
E|-------------------xx-xxx-------------xx-xxx-------------------xx-xxx-1-3-4-3-1-3-0-|

Verses
e|--------------------------------------------------------------------------------------------|
B|--------------------------------------------------------------------------------------------|
G|--------------------------------------------------------------------------------------------|
D|------------------------------------------------------------------------------------77-7-77-|
A|------------------------------------------------------------------------------------55-5-55-|
E|-0-0-0-0-0-0-0-0-0-1-1-1-1-1-1-1-1-1-1-4-4-4-4-4-4-4-4-1-1-1-1-1-1-1-1-/6-6-6-5-5-5---------|
PM * * * * * * * * * * * * * * * * * * * * * * * * * * * * * * * * * * *  * * * * * * 


************************************

| /   slide up
| \   slide down
| h   hammer-on
| p   pull-off
| ~   vibrato
| +   harmonic
| x   Mute note
| b   Bend
| pb  Pre-bend
| br  Bend release
| pbr Pre-bend release
| brb Bend release bend

************************************
Добавлено: 12.11.2015
Другие материалы по этой песне:
  • Аккорды и текст

Страница создана 12.11.2015
http://primanota.ru/misc/seamless-chords.htm
Привет, Гость.
Предлагаем пройти революционный курс по гитаре.
Подарок от PrimaNota.Ru, забирай!