PrimaNota.ru - самый крупный в мире бесплатный архив песенных текстов, аккордов, табулатур и нот


Misc - Iphone Songs - таба, видео

Регистрация Запомнить меня
Войти через:  Facebook Google Twitter Vk Yandex Mail.ru

Misc - Iphone Songs - таба, видео

Печатать
Просмотров: 84
-------------------------------------------------------------------------------
                        1.     Absolute Zero  - Stone Sour
-------------------------------------------------------------------------------
Tuning: Drop B (BF#BEG#C#)
intro
B|----------------|
F#|---------------|
B|----------------|
E|----------------|
G#|---------------|
C#|-3-5-3-6-5-3-5-|

Intro 2
B|---------------------------------|
F#|--------------------------------|
B|--7\-----------------------------|
E|--7\-0-1-0-0-0-0-3-3-6-6-5-5-3-3-|
G#|-5\-0-1-0-0-0-0-3-3-6-6-5-5-3-3-|
C#|----0-1-0-0-0-0-3-3-6-6-5-5-3-3-|
PM     *     * * * 

Verses 1
B|--------------------------------|
F#|-------------------------------|
B|--7\---------------------7\-----|
E|--7\-0-0-0-0-0-0-0-0-0-0-7\-0-1-|
G#|-5\-0-0-0-0-0-0-0-0-0-0-5\-0-1-|
C#|----0-0-0-0-0-0-0-0-0-0----0-1-|x2
PM     * * * * * * * * * * 

Pre - Chorus
B|--------------------------------------------------------------|
F#|-------------------------------------------------------------|
B|--------------------------------------------------------------|
E|--------------------------------------------------------------|
G#|-------------------------------------------------------------|
C#|-8-8-8-8-8-8-7-7-7-7-7-7-7-7-7-7-0-0-7-7-0-10-10-8-8-7-7-0-0-|
PM  * * * * * * * * * * * * * * * * * * * * * ** ** * * * * * *

B|--------------------------------------------------|
F#|-------------------------------------------------|
B|--------------------------------------------------|
E|----------------------------------------------3-5-|
G#|---------------------------------------------3-5-|
C#|-8-8-8-8-8-8-7-7-7-7-7-7-7-7-7-7-0-5-5-0-5-5-3-5-|
PM  * * * * * * * * * * * * * * * * * * * * * * 

B|----------------------------------|
F#|---------------------------------|
B|----------------------------------|
E|--8-8-8-7-7-7-7-7-7-0-7-0-/10-8-7-|
G#|-8-8-8-7-7-7-7-7-7-0-7-0-/10-8-7-|
C#|-8-8-8-7-7-7-7-7-7-0-7-0-/10-8-7-|

Chorus
B|-------------------------------------------------------------------|
F#|------------------------------------------------------------------|
B|--7\---5-5-5-3----------------3-3-5-5-5-7----------------3-3-7-5-6-|
E|--7\-0-5-5-5-3----------------3-3-5-5-5-7----------------3-3-7-5-6-|
G#|-5\-0-3-3-3-1---1---3h5p3-1~-1-1-3-3-3-5---1---3h5p3-1~-1-1-5-3-4-|
C#|----0---------3---3----------------------3---3--------------------|

Ending
B|----------------|
F#|---------------|
B|----------------|
E|--3-5-3-6-5-3-5-|
G#|-3-5-3-6-5-3-5-|
C#|-3-5-3-6-5-3-5-|

-------------------------------------------------------------------------------------------------------------
                                 2.      AOV - Slipknot
-------------------------------------------------------------------------------------------------------------
Tuning: Drop B (BF#BEG#C#)
Intro
B|-----------------------------------------------------------------------------------------------------------|
F#|----------------------------------------------------------------------------------------------------------|
B|-----------------------------------------------------------------------------------------------------------|
E|-----------------------------------------------------------------------------------------------------------|
G#|-------------------------------------------------------------------------------12h13p12-------------------|
C#|-13-12-0000000-10-15-13-12-0000000-10-15-13-12-0000000-10-12-12/13-13-13-13-13----------15p13p15-12h13p12-|

Verses
B|------------------------------------------------------------------|
F#|-----------------------------------------------------------------|
B|------------------------------------------------------------------|
E|------------------------------------------------------------------|
G#|-----------------------------------------------------------------|
C#|-13-12-0000000-12-14-15-14-12-14-13-12-0000000-12-15-17-15-14-15-|

B|------------------------------------------------------|
F#|-----------------------------------------------------|
B|------------------------------------------------------|
E|------------------------------------------------------|
G#|-----------------------------------------------------|
C#|-1-0-0000000-0-2-3-2-0-2-1-0-0000000-0-3-5-3-2-3-2-0-|

B|------------------------------------------------------------|
F#|-----------------------------------------------------------|
B|-----------------------------7/10---------------------3/6---|
E|--8-7-/11--1-0-------6-5-1-0-7/10-8-1-0-------6-5-1-0-3/6-4-|
G#|-8-7-/11--1-0-5h8p5-6-5-1-0-5/8--8-1-0-5h8p5-6-5-1-0-1/4-4-|
C#|-8-7-/11--1-0-------6-5-1-0------8-1-0-------6-5-1-0-----4-|

Chorus
B|--------------------------------------------------|
F#|-------------------------------------------------|
B|--------------------------------------------------|
E|--5-5-5-5-5-5-8--8-8-8-8-10-8-1-1-1-1-3-1-0-0-4-4-|
G#|-5-5-5-5-5-5-8--8-8-8-8-10-8-1-1-1-1-3-1-0-0-4-4-|
C#|-5-5-5-5-5-5-8--8-8-8-8-10-8-1-1-1-1-3-1-0-0-4-4-|

B|----------------------|
F#|---------------------|
B|----------------------|
E|--5-8-5-3-5-7-8-7-3-5-|
G#|-5-8-5-3-5-7-8-7-3-5-|
C#|-5-8-5-3-5-7-8-7-3-5-|

Softer Section
B|------------------------------------------------------|
F#|-----------------------------------------------------|
B|----2---2-0-2---2---2-0-2---0-----------2-------------|
E|--0---0-------------------------2-0-2-----0-2-3-2-0-2-|
G#|-------------3---3-------1---1-------3---------------|
C#|-----------------------------------------------------|x3

--------------------------------------------------------------------------------------------------------------
                               3.        Ashes Of The Wake - Lamb Of God (too long for whole tab sorry)
--------------------------------------------------------------------------------------------------------------
Tuning: Drop D (DADGBE)
Intro
E|-----------------------------------------------------------|
B|-----------------------------------------------------------|
G|-------------------------------------------------------8-8-|
D|-------------------------------------------------------8-8-|
A|----------4-5-7-8-7-5----------------------------------6-6-|
D|-0--0-0-0-------------0--0-0-0-13-10-9-12-8-7-0--0-0-0-----|

E|-----------------------------------------------------------------|
B|-----------------------------------------------------------------|
G|----------------------------------------------10-9---------------|
D|---------------------------------------------------11-11-12-11-8-|
A|----------4-5-7-8-7-5--------------------------------------------|
D|-0--0-0-0-------------0--0-0-0-13-10-9-12-8-7--------------------|

E|-----------------------------------------------------------|
B|-----------------------------------------------------------|
G|-------------------------------------------------------8-8-|
D|-------------------------------------------------------8-8-|
A|----------4-5-7-8-7-5----------------------------------6-6-|
D|-0--0-0-0-------------0--0-0-0-13-10-9-12-8-7-0--0-0-0-----|

E|----------------------------------------------------|
B|----------------------------------------------------|
G|----------------------------------------------------|
D|----------------------------------------------------|
A|----------4-5-7-8-7-5---------------------------1-1-|
D|-0--0-0-0-------------0--0-0-0-8-5-4-7-0--0-0-0-1-1-|

E|-----------------------------------------------------------------|
B|-----------------------------------------------------------------|
G|----------------------------------------------10-9---------------|
D|---------------------------------------------------11-11-12-11-8-|
A|----------4-5-7-8-7-5--------------------------------------------|
D|-0--0-0-0-------------0--0-0-0-13-10-9-12-8-7--------------------|

E|-----------------------------------------------------------|
B|-----------------------------------------------------------|
G|-------------------------------------------------------8-8-|
D|-------------------------------------------------------8-8-|
A|----------4-5-7-8-7-5----------------------------------6-6-|
D|-0--0-0-0-------------0--0-0-0-13-10-9-12-8-7-0--0-0-0-----|


E|----------------------------------------------------------------------------------| 
B|----------------------------------------------------------------------------------| 
G|--------------------------------------10--9---------------------------------------| 
D|---------------------------------------------11--11-12-11--8----------------------| 
A|-----------4--5--7--8--7--5-----------------------------------10--9--6------------| 
D|-0-0-0--0--------------------0--0-0-0-----------------------------------4-5-4--1--| 

E|------------------------------------------------------------------------------------|
B|------------------------------------------------------------------------------------|
G|------------------------------------------------------------------------------------|
D|------------------------------------------------------------------------------------|
A|-5-6-5-----------------------------8-7-4-/5-6-5-------------------------6-6-----3-3-|
D|-------0-0-0-0-0-0-0-0-0-0-0-0-8-7--------------0-0-0-0-0-0-0-0-0-0-0-0-6-6-0-0-3-3-|

E|------------------------------------------------------------------------------------|
B|------------------------------------------------------------------------------------|
G|------------------------------------------------------------------------------------|
D|------------------------------------------------------------------------------------|
A|-5-6-5-----------------------------8-7-4-/5-6-5-------------------------3-3-----4-4-|
D|-------0-0-0-0-0-0-0-0-0-0-0-0-8-7--------------0-0-0-0-0-0-0-0-0-0-0-0-3-3-0-0-4-4-|

E|-----------------------------|
B|-----------------------------|
G|-----------------------------|
D|-----------------------------|
A|-------------------------3-5-|
D|-7-7-7-7-6-6-6-6-3-3-3-6-3-5-|

E|--------------------------------------------------------------------------|
B|--------------------------------------------------2-2--3-3--3-3--3-3------|
G|--------------------------------------------------6-6--7-7--7-7--7-7------|
D|--------------------------------------------------------------------------|
A|---------------------------------------------1-1--5-5--6-6--6-6--3-3--1-8-|
D|-0-0000000000000-0000000000000-0000000000000-1-1--5-5--6-6--6-6--3-3--1-8-|

E|-----------------------------------------------------------------------|
B|-----------------------------------------------------------------------|
G|-----------------------------------------------------------------------|
D|-----------------------------------------------------------------------|
A|-------------------------------------------------------------1-1-1/2-5-|
D|-222-2-22/7/15^-15^--222-2-22/8/15^-15^--333-3-33/9/17^-17^--1-1-1/2-5-|

Ending  (fadeout)
E|-------------------------------------------|
B|-------------------------12p11-------------|
G|-------------------------------------------|
D|-------------------------------13-12h13p12-|
A|-------------------------------------------|
D|-0-00000-0-00000-0-00000-------------------|

--------------------------------------------------------------------------------------------------------------
                                  4.          Before I Forget - Slipknot
--------------------------------------------------------------------------------------------------------------
Tuning: Drop B (BF#BEG#C#)
intro
B|------------------------|
F#|-----------------------|
B|------------------------|
E|------------------------|
G#|-----------------------|
C#|-0-2-0-2-0-3-0-2-2h3p2-|x4

Intro 2 ("GO!!!")
B|------------------------|
F#|-----------------------|
B|------------------------|
E|------------------------|
G#|-0-2-0-2-0-3-0-2-2h3-2-|
C#|-0-2-0-2-0-3-0-2-2h3-2-|x4 

B|------------------|
F#\-----------------|
B|------------------|
E|------------------|
G#|-5-5-0-0-5-5-0-0-|
C#|-5-5-0-0-5-5-0-0-|

Verses
B|---------------------------------------------------------|
F#|--------------------------------------------------------|
B|---------------------------------------------------------|
E|---------------------------------------------------------|
G#|-2222-3--222-3--2222-3--222-3--2222-3-2/5-5-0-0-5-5-0-0-|
C#|-2222-3--222-3--2222-3--222-3--2222-3-2/5-5-0-0-5-5-0-0-|
PM  ****    ***    ****    ***    ****   * 

B|---------------------------------------|
F#|--------16/17--------9/10-------18/19-|
B|---------------------------------------|
E|--x-x-x--------x-x-x-------x-x-x-------|
G#|-x-x-x--------x-x-x-------x-x-x-------|
C#|-x-x-x--------x-x-x-------x-x-x-------|

Chorus ("LISTEN!!")
B|-----------------------------------------------------------------------------------|
F#|----------------------------------------------------------------------------------|
B|-----------------------------------------------------------------------------------|
E|-----------------------------------------------------------------------------------|
G#|-2-0-2-5-0-2-5-0-2\\-2-0-2-5-0-2-5-0-2-8\7--2-0-2-5-0-2-5-0-2-777-8-7/10-5555-7-8-|
C#|-2-0-2-5-0-2-5-0-2\\-2-0-2-5-0-2-5-0-2-8\7--2-0-2-5-0-2-5-0-2-777-8-7/10-5555-7-8-|x5

B|------------------------|
F#|-----------------------|
B|------------------------|
E|------------------------|
G#|-0-2-0-2-0-3-0-2-2h3-2-|
C#|-0-2-0-2-0-3-0-2-2h3-2-|x4 

Verses
B|---------------------------------------------------------|
F#|--------------------------------------------------------|
B|---------------------------------------------------------|
E|---------------------------------------------------------|
G#|-2222-3--222-3--2222-3--222-3--2222-3-2/5-5-0-0-5-5-0-0-|
C#|-2222-3--222-3--2222-3--222-3--2222-3-2/5-5-0-0-5-5-0-0-|
PM  ****    ***    ****    ***    ****   * 

Lead
B|------------------------------------------------------------|
F#|-----------------------------------------------------------|
B|--4h5-5-5-5-5-5-4h5-5-5-5-5-5--4h5-5-7-5-5-/7-5-4---5-4-2-0-|
E|--------------------------------------------------5---------|
G#|-----------------------------------------------------------|
C#|-----------------------------------------------------------|

B|------------------|-------------------|
F#|-----------------|-------------------|
B|------------------|-------------------|
E|------------------|-------------------|
G#|-----------------|-22222222/55555555-|
C#|-0-2-0-2-3-2-0-2-|-22222222/55555555-|
PM                    ******** ********

-------------------------------------------------------------------------------------------------------------
                                  5.  Blister Exists - Slipknot
-------------------------------------------------------------------------------------------------------------
Tuning: Drop B (BF#BEG#C#)
Intro
B|------------------------|
F#|-----------------------|
B|------------------------|
E|------------------------|
G#|-----------------------|
C#|-00-0-0-0-13b-0-00-13b-|x8

Part 2 (ONE TWO THREE!!!!)
B|---------------------------|
F#|--------------------------|
B|---------------------------|
E|---------------------------|
G#|-0-00--0-1-0--0-00--0-1-0-|
C#|-0-00--0-1-0--0-00--0-1-0-|
 
Part 3(DROP IT!!!) (All verses - (Can you feel this)
B|-----------------------------|
F#|----------------------------|
B|-----------------------------|
E|-----------------------------|
G#|-1-1-1--3-4-3--1-1-1--3-4-3-|
C#|-1-1-1--3-4-3--1-1-1--3-4-3-|x7

Verses
B|----------------------|---------------------------|
F#|-/555555555-44444/15-|-10-11-10------------------|
B|----------------------|----------13-10-11-10-8----|
E|----------------------|------------------------10-|
G#|---------------------|---------------------------|
C#|---------------------|---------------------------|

Chorus ("what am i? equal too any of you........")
B|--------------------------|
F#|-------------------------|
B|--------------------------|
E|--------------------------|
G#|-2-3-0-6-5-6-5-------3-5-|
C#|-2-3-0-6-5-6-5-0-3-3-3-5-|xmany

-------------------------------------------------------------------------------------------------------------
                                   6.   Blooddrunk (simplified version)-  Children Of Bodom 
-------------------------------------------------------------------------------------------------------------
Tuning: Drop C (DAFCGC)
intro
D|----------------------------------------------------|
A|----------------------------------------------------|
F|-5-7-5-55-5--2-3--7-7-7-555/7-7-7-999\7-7-7-555-2-3-|
C|-5-7-5-55-5--2-3--7-7-7-555/7-7-7-999\7-7-7-555-2-3-|
G|-3-5-3-33-3-/0-1--5-5-5-333/5-5-5-777\5-5-5-333-0-1-|
C|----------------------------------------------------|

Part 2 (Verses)
D|---------------------------------------------------------------------------------|
A|--------------------------------------6------------------------------------------|
F|--------------------------------7-------7----------------------------------------|
C|-----------------7----------------7-6---------------------7------------------888-|
G|------3---4--8-5---6------3---4----------------2---3--8-5---6------2---3-----666-|
C|-0-00-3-0-4----------0-00-3-0-4-----------0-00-2-0-3----------0-00-2-0-3-0-6-----|

D|--------------------------------------------|
A|---------------------------------------10-9-|
F|-----------------7--------------10-9-8------|
C|---------------7---6------------------------|
G|------3---4--5------------2---3-------------|
C|-0-00-3-0-4----------0-00-2-0-3-------------|

Chorus
D|---------------------------------------------------------------------------|
A|---------------------------------------------------------------------------|
F|-------------------------------------4\3-------------------------------5-7-|
C|-----------------5\4-----------------------------------------------5-4-----|
G|-----------2-4-5---------------2-4-5-----------------2222222-2-4-5---------|
C|-44444-2-4-2-4-5-----44444-2-4-2-4-5-----44444-2-4-0-2222222-2-4-5---------|
PM ***** * *           ***** * *           ***** * * 

B|---------------------------------------------|
F#|--------------------------------------------|
B|--11----13----14----14----16----16----16\13~-|
E|-----11----11----11----11----11----11--------|
G#|--------------------------------------------|
C#|--------------------------------------------|

(no solo Sorry)

--------------------------------------------------------------------------------------------------------------
                                  7.            BYOB - System Of A Down
--------------------------------------------------------------------------------------------------------------
Tuning: Drop D (DADGBE)
Intro
E|---------------------------------------------------------------------------|
B|---------------------------------------------------------------------------|
G|---------------------------------------------------------------------------|
D|---------------------------------------------------------------------------|
A|-7-000000-7-0-8-0-7-0-7-0000000-7-0-8-0-7-7-00000000-8-0-8-7-0-8-0-8-7-0-7-|
D|---------------------------------------------------------------------------|x3

Part 2
E|------------------------------------------------------------|---------|
B|------------------------------------------------------------|---------|
G|------------------------------------------------------------|---------|
D|----------------------------------------------------9-11-12-|-12-11-9-|
A|----------------------------------------------------7-9--10-|-10-9--7-|
D|-7-0-8-00-7-0-8-7-0-8-7-0-8-7-00-8-0-7-0-8-00-7-0-8---------|---------|
PM * * * ** * * * * * * * * * * ** * * * * * ** * * * 

Verses
E|-----------------------------------------------------------------------------------------------|
B|-----------------------------------------------------------------------------------------------|
G|-----------------------------------------------------------------------------------------------|
D|-----------------------------------------------10--------------------------------------12-10-9-|
A|-----------------------------------------------8---------------------------------------10-8--7-|
D|-7-00-8-00-7-00-8-00-7-00-8-00-7-00-8-0-8-0-77----7-00-8-00-7-00-8-00-7-00-8-00-8-0-77---------|
PM * ** * ** * ** * ** * ** * ** * ** * * * * **    * ** * ** * ** * ** * ** * ** * * ** 

Part 3 (chorus)
E|------------------------------------------------------------------------------------------------|
B|------------------------------------------------------------------------------------------------|
G|-----------------5-55-5-5-5-55-5-----------------------------2b*-5-5------------5-5-------------|
D|-0-00-0-0-0-00-0-5-55-5-5-5-55-5-5-5-5-55--5-7-8-7-5-3-5-3-2-----5-5--------3p2-5-5-------3p2p0-|
A|-0-00-0-0-0-00-0-3-33-3-3-3-33-3-5-5-5-55--5-7-8-7-5-3-5-3-2-----3-3-/0-3-5-----3-3-0-3-5-------|
D|-0-00-0-0-0-00-0-----------------5-5-5-55-/5-7-8-7-5-3-5-3-2------------------------------------|
PM * ** * * * ** * * ** * * * ** * * * * ** 

--------------------------------------------------------------------------------------------------------------
                            8.       Custer - Slipknot
--------------------------------------------------------------------------------------------------------------
Tuning: Drop B (BF#BEG#C#)
Intro
B|---------------------|
F#|--------------------|
B|---------------------|
E|---------------------|
G#|----1----1----1-1-1-|
C#|-00-1-00-1-00-1-1-1-|x3

Intro 2
B|---------------------------|
F#|--------------------------|
B|---------------------------|
E|---------------------------|
G#|--------------------------|
C#|-00-4\3-00-4\3-00-4\3-0-1-|x5

Verses
B|------------------------------------------------------|
F#|-----------------------------------------------------|
B|------------------------------------------------------|
E|------------------------------------------------------|
G#|-666666555555-666555-888888888888885555666-5555555---|
C#|-----------------------------------------------------|
************************************

| /   slide up
| \   slide down
| h   hammer-on
| p   pull-off
| ~   vibrato
| +   harmonic
| x   Mute note
| b   Bend
| pb  Pre-bend
| br  Bend release
| pbr Pre-bend release
| brb Bend release bend

************************************
Добавлено: 12.11.2015
Другие материалы по этой песне:
  • Аккорды и текст

Страница создана 12.11.2015
http://primanota.ru/misc/iphone-songs-chords.htm
Привет, Гость.
Предлагаем пройти революционный курс по гитаре.
Подарок от PrimaNota.Ru, забирай!