PrimaNota.ru - самый крупный в мире бесплатный архив песенных текстов, аккордов, табулатур и нот


Misc - Release Rattle - таба, видео

Регистрация Запомнить меня
Войти через:  Facebook Google Twitter Vk Yandex Mail.ru

Misc - Release Rattle - таба, видео

Печатать
Просмотров: 89
Уроки эстрадного вокала в Санкт-Петербурге
-------------------------------------------------------------------------------
                             Release Rattle - Misc
-------------------------------------------------------------------------------
Tabbed by:
E-mail:

Tuning: D Standard (DAFCGD)
Intro
D|---------------------------------------------------|
A|---------------------------------------------------|
F|---------------------------------------------------|
C|-------------------8888----------------------------|
G|-4/5\4-6/7\6-8/9\8-6666-/5h6---3h4---1h2---0h1-----|
D|-2/3\2-4/5\4-6/7\6-----------8-----6-----4-----3~~-|x3

part 2 (VERSES)
D|-------------------------------------------------------------|
A|-------------------------------------------------------------|
F|-------------------------------------------------------------|
C|-----4/5\4---------------8\7/8---------------7/8\7\4---------|
G|-----2/3\2-----5\4/5-----6\5/6-----7/8\7-----5/6\5\2-5/7\5-2-|
D|-000-------000-3\2/3-000-------000-5/6\5-000---------3/5\3-0-| 
PM ***       ***       ***       ***       ***


just before Chorus
D|---------------------------------------------------------------------|
A|---------------------------------------------------------------------|
F|---------------------------------------------------------------------|
C|---------------------------------------------------------------------|
G|-/5h6-3h5-1h3-0h1--------9h10-7h9-5h7-3h5----------8---7---5---------|
D|------------------000000------------------555555-5---5---5---7-5h7p5-|x3
PM                  ******                  ****** *   *   *   

Chorus
D|-------------------------------------------------|
A|-----13b-14b-13b---------------------------------|
F|-----15b-16b-15b---------15b-16b-15b-------------|
C|-------------------------17b-18b-17b-------------|
G|-222-------------2--222--------------2-3-6-5-3-5-|
D|-000-------------0--000--------------0-1-4-3-1-3-|
PM ***             *  ***              * * * * * 


| /   slide up
| \   slide down
| h   hammer-on
| p   pull-off
| ~   vibrato
| +   harmonic
| x   Mute note
| b   Bend
| pb  Pre-bend
| br  Bend release
| pbr Pre-bend release
| brb Bend release bend

************************************
Добавлено: 12.11.2015
Другие материалы по этой песне:
  • Аккорды и текст

Страница создана 12.11.2015
http://primanota.ru/misc/release-rattle-chords.htm
Привет, Гость.
Предлагаем пройти революционный курс по гитаре.
Подарок от PrimaNota.Ru, забирай!