PrimaNota.ru - самый крупный в мире бесплатный архив песенных текстов, аккордов, табулатур и нот


Misc - Tight Bound - таба

Регистрация Запомнить меня
Войти через:  Facebook Google Twitter Vk Yandex Mail.ru

Misc - Tight Bound - таба

Печатать
Просмотров: 52
-------------------------------------------------------------------------------
                             Tight Bound - Misc
-------------------------------------------------------------------------------
Tabbed by:
E-mail:

Tuning: Standard (EBGDAE)
intro
e|-------------------------------------|
B|-------------------------------------|
G|-------------------------------------|
D|-------------------------------------|
A|-------------------------------------|
E|-0-0-0-0-0-0-0-0-0-0-0-0-0-0-0-0-0-0-|x 4
PM x x x x x x x x x x x x x x x x x x

Part 2 (CHORUS)
e|-----------------------------------------------------------------|
B|-----------------------------------------------------------------|
G|-----------------------------------------------------------------|
D|-----------0----------------------0------------------0-----------|
A|-----0-1-2---2-1-0---2------0-1-2--------------0-1-2---2-1-0---2-|
E|-0-3---------------3-0--0-3---------3-2-1--0-3---------------3-0-|
PM x x x x x   x x x x    x x x x x   x x x  x x x x x   x x x x 

verses
e|-----------------------------------------------------------------------------------------------|
B|-----------------------------------------------------------------------------------------------|
G|-----------------------------------------------------------------------------------------------|
D|-------------------------------------0---------------------------------------------0-----------|
A|-------------------------------0-1-2---2-1-0-2-------------------------------0-1-2---2-1-0-3-2-|
E|-00-0-0-0-0000-00-0-0-0-0-0000---------------0-00-0-0-0-0000-00-0-0-0-0-0000---------------1-0-|
PM xx x x x xxxx xx x x x x xxxx                 xx x x x xxxx xx x x x x xxxx

e|------------------------------------------------------------|
B|------------------------------------------------------------|
G|-----------------------------------------------3*-----------|
D|-33--3----------7-6-4----------2-4-3-2----------------------|
A|-11--1-3333/4-4-5-4-2-6--2-3-4-0-2-1-0-2-0-1-2----2-1-0---2-|
E|-------1111/2-2-------4--0-1-2---------0----------------3-0-|
PM       xxxx              x x x         x 



************************************
| *   pinch harmonic
| /   slide up
| \   slide down
| h   hammer-on
| p   pull-off
| ~   vibrato
| +   harmonic
| x   Mute note
| b   Bend
| pb  Pre-bend
| br  Bend release
| pbr Pre-bend release
| brb Bend release bend

************************************
Добавлено: 12.11.2015
Другие материалы по этой песне:
  • Аккорды и текст

Страница создана 12.11.2015
http://primanota.ru/misc/tight-bound-chords.htm
Привет, Гость.
Предлагаем пройти революционный курс по гитаре.
Подарок от PrimaNota.Ru, забирай!