PrimaNota.ru - самый крупный в мире бесплатный архив песенных текстов, аккордов, табулатур и нот


Misc - Gods Wish - таба, видео

Регистрация Запомнить меня
Войти через:  Facebook Google Twitter Vk Yandex Mail.ru

Misc - Gods Wish - таба, видео

Печатать
Просмотров: 73
-------------------------------------------------------------------------------
                             God's Wish  - Misc
-------------------------------------------------------------------------------
Tabbed by:
E-mail:

Tuning: Drop D (EBGDAD)
intro (heavy palm mute)
e|-------------------------------------------------------------------------------|
B|-------------------------------------------------------------------------------|
G|-9\-----------------9\-----------------7\--------------------------------------|
D|-9\-----------------9\-----------------7\-------3-2-0--------------------------|
A|-7\-0-0-0-0-0-0-0-0-7\-1-1-1-1-1-1-1-1-5\-0-1-2---------4--6-6-6-4-4-4-1-2-4\\-|
D|----0-0-0-0-0-0-0-0----1-1-1-1-1-1-1-1----------------1----6-6-6-4-4-4-1-2-4\\-|
PM    * * * * * * * *    * * * * * * * *    * * *       *    

Verses (light palm m mute)
e|---------------------------------------------------10-----7--------------------------------|
B|------------------------------------------------------9-----6------------------------------|
G|---9-----------9-7-6-----------------9------6-----------8-----5----------------------------|
D|-7---7-----5--------------9-6-7--------8------5-----------------6-7-4----------------------|
A|-------5-7---7-------8-10-------8-7------7------4---------------------5-8-5------5-6-1-2\\-|
D|------------------------------------------------------------------------8-5-0000-5-6-1-2\\-|
PM * * * * * * * * * * * ** * * * * * * * * * * * * ** * * * * * * * * *      ****

Chorus
e|---------------------------------------------------------------------------------------------|
B|---------------------------------------------------------------------------------------------|
G|---------------------------------------------------------------------------------------------|
D|---------------------------------------------------------------------------------------------|
A|-0-1-0--0-0-8-7--0-1-0--0-0-6-5-3-5-2--0-1-0--0-0-8-7--0-1-0--0-0-8-7-5-7-5-4--0-1-0-1-2-3\\-|
D|-0-1-0--0-0-8-7--0-1-0--0-0-6-5-3-5-2--0-1-0--0-0-8-7--0-1-0--0-0-8-7-5-7-5-4--0-1-0-1-2-3\\-|

lead
e|---------------------------------------------------------------------------|
B|---------------------------------------------------------------------------|
G|------7~-----------7---------------8-7-----------------12------------------|
D|----6------------6---8-5---------5-------6-5---------9----12-10------------|
A|---------------------------------------3------------------------9----------|
D|-00------0-0-000---------0-0-000-------------0-0-000---------------5h6p5~~-|
PM **      * * ***         * * ***             * * *** 




************************************

| /   slide up
| \   slide down
| h   hammer-on
| p   pull-off
| ~   vibrato
| +   harmonic
| x   Mute note
| b   Bend
| pb  Pre-bend
| br  Bend release
| pbr Pre-bend release
| brb Bend release bend

************************************
Добавлено: 03.11.2015
Другие материалы по этой песне:
  • Аккорды и текст

Страница создана 03.11.2015
http://primanota.ru/misc/gods-wish-chords.htm
Привет, Гость.
Предлагаем пройти революционный курс по гитаре.
Подарок от PrimaNota.Ru, забирай!