PrimaNota.ru - самый крупный в мире бесплатный архив песенных текстов, аккордов, табулатур и нот


Misc Your Songs - Likeharps Theme - таба

Регистрация Запомнить меня
Войти через:  Facebook Google Twitter Vk Yandex Mail.ru

Misc Your Songs - Likeharps Theme - таба

Печатать
Просмотров: 30
                            Likeharp's theme- by Maksym Lazirko (thats me)
Tabbed by: me (thehalobox)
Tuning: standard
~intro~
e|------------------------------------------------------------------------|
B|------------------------------------------------------------------------|
G|------------------------------------------------------------------------|
D|0-00-30---30------------------------------------------------------------|
A|-------333------0-0-0-3-3-3-------5-5-5-5-0-0-3-3-0-5-5-5-0-------------|
E|--------------0-------------3-3-3------------------3--------------------|
(repeat this verse down here as many times as needed then proceed to the last part) 
e|------------------------------------------------{000-333----5555-0------|
B|------------------------------------------------{-------3333------------|
G|------------------------------------------------{-----------------------|
D|------------------------------------------------{-----------------------|
A|-0-0-0-3-3-3-------5-5-5-5-0-0--3------0-5-5-5-0{-----------------------|
E|--------------3-3-3--------------3--------------{-----------------------|
^strum the first part of the second verse^

*Please feel free to add on to this song I am composing.*
Добавлено: 05.04.2016
Вам также может быть интересно:
Другие материалы по этой песне:
  • Аккорды и текст

Страница создана 05.04.2016
http://primanota.ru/misc-your-songs/likeharps-theme-chords.htm
Привет, Гость.
Предлагаем пройти революционный курс по гитаре.
Подарок от PrimaNota.Ru, забирай!