PrimaNota.ru - самый крупный в мире бесплатный архив песенных текстов, аккордов, табулатур и нот


Misc Your Songs - Kurbit - Some Noise - таба

Регистрация Запомнить меня
Войти через:  Facebook Google Twitter Vk Yandex Mail.ru

Misc Your Songs - Kurbit - Some Noise - таба

Печатать
Просмотров: 25
-------------------------------------------------------------------------------
                             Some Noise - kurbit
-------------------------------------------------------------------------------
Tabbed by: kurbit


Guitar 1:
Mid distortion
Tuned a whole step down(D G C F A d)

Guitar 2:
High overdrive
Standard Tuning(E A D G B e)

Guitar 3:
Low distortion
Tuned a half step down(D# G# C# F# A# d#)





Riff 1:

e|----0-----0--------|
B|------0-0---0----0-|
G|--------------11---|
D|-12----------------|
A|-------------------|
E|-------------------|


Riff 2:
e|-11/12-12-12-12--11/12-12-12-12--11/12-12-12-12--12-13-14-13-11/13-13\11-11/12-|
B|-11/12-12-12-12--11/12-12-12-12--11/12-12-12-12--12-13-14-13-11/13-13\11-11/12-|
G|-11/12-12-12-12--11/12-12-12-12--11/12-12-12-12--------------------------------|
D|-------------------------------------------------------------------------------|
A|-------------------------------------------------------------------------------|
E|-------------------------------------------------------------------------------|


Riff 3a:
e|----------------------------------------|
B|----------------------------------------|
G|-8/9-9\8--4\3-3/7--8/9-9\8--4\3-3/7\6/8-|
D|-8/9-9\8--4\3-3/7--8/9-9\8--4\3-3/7\6/8-|
A|-6/7-7\6--2\1-1/5--6/7-7\6--2\1-1/5\4/6-|
E|----------------------------------------|


Riff 3b:
e|----------------------------------------------------------|
B|----------------------------------------------------------|
G|-7\5-5/7-/9--------------7\5-5/7-/9-----------------------|
D|-7\5-5/7-/9--7\5-5/7-/9--7\5-5/7-/9--5/7-7/9/11/12\11\7/9-|
A|-5\3-3/5-/7--7\5-5/7-/9--5\3-3/5-/7--5/7-7/9/11/12\11\7/9-|
E|-------------5\3-3/5-/7--------------3/5-5/7/9-/10\9-\5/7-|


Riff 3c:
e|------------------------|
B|------------------------|
G|------------------------|
D|-44444444-5\4\3/7/9\7\5-|
A|-44444444-5\4\3/7/9\7\5-|
E|-22222222-3\2\1/5/7\5\3-|


Riff 4:
e|---------------------------------|
B|---------------------------------|
G|----------------------5557\5\4/5-|
D|-444445-------777777775557\5\4/5-|
A|-444445--(x3)-777777773335\3\2/3-|
E|-2222230------55555555-----------|


Intro Riff:
e|------------------------------|
B|------------------------------|
G|------------------------------|
D|-0-7h-6-7-00000000-888-999-44-|
A|-0-7h-6-7-00000000-888-999-44-|
E|-0-7h-6-7-00000000-888-999-44-|


Outro Riff 1:
e|--------------------------------------------------------------0-\00/0-7-6--------------------|
B|--------------------------------------------------------------0-\00/0-7-6--------------------|
G|--------------------------------------------------------------10\88/9-7-6-(slowly slide down-|
D|-4-------4-------5------6------4------5-5-2-3-3p-1/3-22222222-0-\00/0-7-6----to first fret)--|
A|-4-(x12)-4-(x16)-5-(x8)-6-(x4)-4-(x4)-5-5-2-3-3p-1/3-22222222-7-\66/7-7-6--------------------|
E|-2-------0-------0------0------0------0-0-0-0----0/0-00000000-0-\00/0-7-6--------------------|


Outro Riff 2:
e|-16---------------------0-7-6------------------------|
B|-19---------------------0-7-6------------------------|
G|-17-(x16)---------------0-7-6------------------------|
D|-15---------------------0-7-6-----------0------------|
A|----------44-55-66-77-8-0-7-6-----------0-(let Ring)-|
E|----------22-33-44-55-6 0-7-6--6b-(7)-6-0------------|




Bass Riff 1:
Hold this shape:
G|--9--|
D|--6--|
A|--7--|
E|--8--|

G|---9-----9-------|
D|-----6-6---6---6-|
A|-------------7---|
E|-8---------------|

Bass Riff 2a:
G|-----------------------------------------------------------|
D|-----------------------------------------------------------|
A|----------------------12b/13~-14b\13~-11-13h-13p-11-11/12~-|
E|-11/12~-11/12~-11/12~--------------------------------------|

Bass Riff 2b:
G|------------------------------------------------------|
D|------------------------------------------------------|
A|----------------------12-13-14\13-11-13h-13-11-11-12h-|
E|-11-12h-11/12-11-12h----------------------------------|

Bass Riff 3a:
G|-----------------------------|
D|-----------------------------|
A|-6-7h-7p-6-------------------|
E|-----------14\13-13/17\16/18-|

Bass Riff 3b:
G|-------------------------------------------------------------|
D|-----------------------------5\3-3/5-7b----------------------|
A|-------------7b--5\3-3/5-7b-------------3/5-5/7/9-/10\9-\5/7-|
E|-17\15-15/17-------------------------------------------------|

Bass Riff 3c:
G|------------------------------------------|
D|------------------------------------------|
A|-0-2h-0-2h-0-2h-0-2h----------------------|
E|-=-------------------15\14\13/17/19\17\15-|

Bass Riff 4:
G|--------------------------------------------|
D|---------------------------------3335\3\2/3-|
A|-2222230-2222230-2222230-55555555-----------|
E|--------------------------------------------|

Intro Riff:
G|------------------------------------------|
D|------------------------------------------|
A|------------------------------------------|
E|-0-7h\6-7h-00000000-8h88-9h99-\4-4b-------|

Outro Riff:
G|---------------------------------------------------------------------------------------------|
D|---------------------------------------------------------------------7-7\--------------------|
A|-2-(x12)-0-(x16)-5-(x8)-6-(x4)-4-(x4)-5-5-2-3-3p-1/3-22222222-7\66/7-0-0\-(slowly slide down-|
E|-2-------0-------0------5------0------0-0-0------0/0-00000000-0\00/0-7-6\----to first fret)--|





Guitar 1:             Guitar 2:                                  Guitar 3:
Intro                 Riff 1                                     Riff 2 x3 (after guitar 1 plays through once)
Riff 2 x13       (play apart from during intro and outro)        Riff 3a x4
Outro 2                                                          Riff 3b x2
                                                                 Riff 3c
                                                                 Riff 4
                                                                 Riff 3c
                                                                 Outro 1
                                                                
                            Play the outro such that the
                                    e|--7-6--|
                                    B|--7-6--|
                                    G|--7-6--|
                                    D|--7-6--|
                                    A|--7-6--|
                                    E|--7-6--|
                     parts of them both are played concurrently






Bass 1:
Riff 2 x3 (after guitar 1 plays through once)          
Riff 3a x4                                            
Riff 3b x2                                     
Riff 3c
Riff 4
Riff 3c
Outro

Bass 2: (along with guitar 1 with exception of
Riff 2a              the outro is not played)
Riff 2b x11
Riff 2a
                         
               
************************************

| /   slide up
| \   slide down
| h   hammer-on
| p   pull-off
| ~   vibrato
| +   harmonic
| x   Mute note
| b   Bend
| pb  Pre-bend
| br  Bend release
| pbr Pre-bend release
| brb Bend release bend

************************************
Добавлено: 05.04.2016
Другие материалы по этой песне:
  • Аккорды и текст

Страница создана 05.04.2016
http://primanota.ru/misc-your-songs/kurbit-some-noise-chords.htm
Привет, Гость.
Предлагаем пройти революционный курс по гитаре.
Подарок от PrimaNota.Ru, забирай!