PrimaNota.ru - самый крупный в мире бесплатный архив песенных текстов, аккордов, табулатур и нот


Misc Unsigned Bands - What Lies Beneath - Carpe Noctum - таба

Регистрация Запомнить меня
Войти через:  Facebook Google Twitter Vk Yandex Mail.ru

Misc Unsigned Bands - What Lies Beneath - Carpe Noctum - таба

Печатать
Просмотров: 59
Intro

Guitar 1 (x4)

C----------------------------------------------------------------------------|
G----------------------------------------------------------------------------|
D#---------------------------------------------------------------------------|
A#---------------------------------------------------------------------------|
F------------------22222222--------------------------------------------------|
A#-3333333333333535--------55555555------------------------------------------|

C
G
D#
A#    NOT REALLY SURE ABOUT THIS. (I'll figure this out soon)
F
A#

C----------------------------------------------------------------------------|
G----------------------------------------------------------------------------|
D#---------------------------------------------------------------------------|
A#---------------------------------------------------------------------------|
F--00---00-00--00-00-00---00-00--00-00---------------------------------------|
A#-00---00-00--00-00-00---00-00--00-00---------------------------------------|
Pm ..   .. ..  .. .. ..   .. ..  .. ..

(Play this with the above breakdown also)
C----------------------------------------------------------------------------|
G----------------------------------------------------------------------------|
D#---------------------------------------------------------------------------|
A#---------------------------------------------------------------------------|
F----5-3-5-8----7------5-5-5---5-5-3----5-3-5-8----7------5-5-5-----7--7--7--|
A#-00-0-0-0-0000-000088-8-8--33-3-3---00-0-0-0-0000-000088-8-8--1010-10-10---|
Pm .. . . . .... ...... . .  .. . .   .. . . . .... ...... . .   ..   .  .

(First time played)
C----------------------------------------------------------------------------|
G----------------------------------------------------------------------------|
D#---------------------------------------------------------------------------|
A#-------------------------------------7-------------------------------------|
F--5--3-------------8----8--7------7-8---8-----------------------------------|
A#--00-0000--0--1010-1010-88-885555-5-5-5-5----------------------------------|
Pm  .. ....      . .  . . .. ...... . . . .

(Second time played)
C----------------------------------------------------------------------------|
G----------------------------------------------------------------------------|
D#---------------------------------------------------------------------------|
A#---------------------------------------------------------------------------|
F--5--3-------------8----8--7----8----7--------------------------------------|
A#--00-0000--0--1010-1010-88-8888-1010-1010----------------------------------|
Pm  .. ....      ..   ..  .. ....  ..   ..

(First time played)
C----------------------------------------------------------------------------|
G----------------------------------------------------------------------------|
D#---------------------------------------------------------------------------|
A#---------------------------------------------------------------------------|
F----------------------------------------------------------------------------|
A#-000000000000000010108888888888888888557777777777777777553333333322222222--|

(Second time played)

C----------------------------------------------------------------------------|
G----------------------------------------------------------------------------|
D#----------------------------------------------------------7-7--------------|
A#----------------------------------------------------------7-7--------------|
F-----------------------------------------------------------3-2--------------|
A#-00000000000000001010888888888888888855777777777777777755-3-2--------------|
                                 (Not really sure about this^ ^)


(x2 minus the last 00 on the second time)
C----------------------------------------------------------------------------|
G----------------------------------------------------------------------------|
D#---------------------------------------------------------------------------|
A#---------------------------------------------------------------------------|
F--0-00----00-0--00-0-00---------0-00----00-0--00-0---00-00------------------|
A#-0-00----00-0--00-0-00----0----0-00----00-0--00-0---00-00------------------|
Pm . ..    .. .  .. . ..         . ..    .. .  .. .   .. ..

(x4)
C----------------------------------------------------------------------------|
G----------------------------------------------------------------------------|
D#---------------------------------------------------------------------------|
A#---------------------------------------------------------------------------|
F--3--3--3-2--2--2----3-3-3---2-2-2------------------------------------------|
A#--33-33-3-55-55-5-66-6-6--55-5-5-------------------------------------------|
Pm  .. .. . .. .. . .. . .  .. . .

(pause and then this)
C----------------------------------------------------------------------------|
G----------------------------------------------------------------------------|
D#---------------------------------------------------------------------------|
A#-----8----3----------------------------------------------------------------|
F------8----3----/////////---------------------------------------------------|
A#-----8----3----/////////---------------------------------------------------|
      (^    ^ Let ring)

(x2)
C----------------------------------------------------------------------------|
G----------------------------------------------------------------------------|
D#---------------------------------------------------------------------------|
A#---------------------------------------------------------------------------|
F-----5-----5--5--5-----5--7--3------3--3--8----------7----8-----------------|
A#-----00000-00-00-88888-88-88--33333-33-33-1010101010-1010-1010-------------|
Pm     ..... .. .. ..... .. ..  ..... .. ..  . . . . .  . .  . .

(x2)
C----------------------------------------------------------------------------|
G----------------------------------------------------------------------------|
D#---------------------------------------------------------------------------|
A#---------------------------------------------------------------------------|
F----------------------------------------------------------------------------|
A#--000000000000000000000000555588881212121288888888888888888888881212128888-|

(Continued from the riff up top^)
C----------------------------------------------------------------------------|
G----------------------------------------------------------------------------|
D#---------------------------------------------------------------------------|
A#---------------------------------------------------------------------------|
F----3333333333333333--------------------------------------------------------|
A#---33333333333333331010101055555-------------------------------------------|
Pm   ................

(Then this riff again x2)
C----------------------------------------------------------------------------|
G----------------------------------------------------------------------------|
D#---------------------------------------------------------------------------|
A#---------------------------------------------------------------------------|
F-----5-----5--5--5-----5--7--3------3--3--8----------7----8-----------------|
A#-----00000-00-00-88888-88-88--33333-33-33-1010101010-1010-1010-------------|
Pm     ..... .. .. ..... .. ..  ..... .. ..  . . . . .  . .  . .
Добавлено: 02.11.2013
Другие материалы по этой песне:
  • Аккорды и текст

Страница создана 02.11.2013
http://primanota.ru/misc-unsigned-bands/what-lies-beneath-carpe-noctum-chords.htm
Привет, Гость.
Предлагаем пройти революционный курс по гитаре.
Подарок от PrimaNota.Ru, забирай!