PrimaNota.ru - самый крупный в мире бесплатный архив песенных текстов, аккордов, табулатур и нот


Misc Unsigned Bands - Weeping Insanity - The Darkest Nights - таба, видео

Регистрация Запомнить меня
Войти через:  Facebook Google Twitter Vk Yandex Mail.ru

Misc Unsigned Bands - Weeping Insanity - The Darkest Nights - таба, видео

Печатать
Просмотров: 60
Hey! Sinister Insanity here with my own tab of one of my songs. Enjoy and rate well!!!
sinisterinsanity3@gmail.com


E|-------------------------------------------------------------|
B|-------------------------------------------------------------|
G|-------------4-----------------4-----------------4-----------|
D|----------5-----5-----------5-----5-----------5-----5--------|
A|-------4-----------4-----4-----------4-----4-----------4-----|
D|--0-------------------0-----------------0-----------------0--|



E|-----------------------------------------------------------------|
B|---------------3-----------------3-----------------3-------------|
G|------------4-----4-----------4-----4-----------4-----4----------|
D|---------3-----------3-----3-----------3-----3-----------3-------|
A|-----------------------------------------------------------------|
D|--0/2-------------------2-----------------2-----------------2r0--|



E|--13p11-----------------------------------|
B|---------12p10----------------------------|
G|----------------12p11---------------------|
D|-----------------------11p9---------------|
A|-----------------------------10p8---------|
D|-----------------------------------1/12v--|



E|----------------------------------------------15h17-------------------------------------------|
B|--12----10h12--13----10h12--13--12--10--12-----------15h16------------------------------------|
G|------------------------------------------------------------15h17-----------------------------|
D|-------------------------------------------------------------------16h17----------------------|
A|--------------------------------------------------------------------------15h16h17------------|
D|------------------------------------------------------------------------------------17\2v-----|



E|-----------------------------------------------------------------------------|
B|-----------------------------------------------------------------------------|
G|-----------4-----------------4-----------------4-----------------4-----------|
D|--------5-----5-----------5-----5-----------5-----5-----------5-----5--------|
A|-----4-----------4-----4-----------4-----4-----------4-----4-----------4-----|
D|--0-----------------0-----------------0-----------------0-----------------0--|



E|-----------------------------------------------------------------------------|
B|-----------3-----------------3-----------------3-----------------3-----------|
G|--------4-----4-----------4-----4-----------4-----4-----------4-----4--------|
D|-----3-----------3-----3-----------3-----3-----------3-----3-----------3-----|
A|-----------------------------------------------------------------------------|
D|--2-----------------2-----------------2-----------------2-----------------2--|



E|-----------5-----------------5-----------------5-----------------5-----------|
B|--------4-----4-----------4-----4-----------4-----4-----------4-----4--------|
G|-----5-----------5-----5-----------5-----5-----------5-----5-----------5-----|
D|-----------------------------------------------------------------------------|
A|-----------------------------------------------------------------------------|
D|--4-----------------4-----------------4-----------------4-----------------4--|
Добавлено: 05.08.2013
Другие материалы по этой песне:
  • Аккорды и текст

Страница создана 05.08.2013
http://primanota.ru/misc-unsigned-bands/weeping-insanity-the-darkest-nights-chords.htm
Привет, Гость.
Предлагаем пройти революционный курс по гитаре.
Подарок от PrimaNota.Ru, забирай!