PrimaNota.ru - самый крупный в мире бесплатный архив песенных текстов, аккордов, табулатур и нот


Misc Unsigned Bands - Tremeloes - Candy Man - бас-таба

Регистрация Запомнить меня
Войти через:  Facebook Google Twitter Vk Yandex Mail.ru

Misc Unsigned Bands - Tremeloes - Candy Man - бас-таба

Печатать
Просмотров: 45
Candy Man
Originally recorded by Roy Orbison this version by Brian Poole and
The Tremeloes reached number 6 in UK January 1964.
Bass performance Alan Howard. Tab by bass50611. As per the '64 Decca
Recording and straight forward. Comments at bass254@btinternet.com

Intro:
G|--------------|-5---5---5---5-5---0-0-|
D|-GUITAR START-|-----------------------|
A|--------------|-----------------------|
E|--------------|-----------------------|

Verse 1:
Come On Baby...
G|------12/5---5---5---5---5-----------------5---5---5---5-|
D|-----------5---5---5---5---5---3---3---3-----5---5---5---|
A|---------------------------------3---3---3---------------|
E|---------------------------------------------------------|

                        (Break)            .
G|--5-----------------5---5--------5---5---5---0-0--|
D|-5-5---5----3---3-----5------------5---5----------|
A|-----5---5----3---3-------------------------------|
E|--------------------------------------------------|

Verse 2:
Come On Baby...
G|------12/5---5---5---5---5---5---5---5---------------------|
D|-----------5---5---5---5---5---5---5---5---3---3---3---3---|
A|---------------------------------------------3---3---3---3-|
E|-----------------------------------------------------------|

                                       (Break)            .
G|-5---5---5---5---5-----------------5---5--------5---5---5---0-0-|
D|---5---5---5----5-5---5---3---3------5------------5---5---------|
A|--------------------5---5----3---3------------------------------|
E|----------------------------------------------------------------|

Instrumental break:
G|-12/5---5---5---5-------------5---5---------------------|
D|------5---5---5---5---3---3-----5---5---5---5---3---3---|
A|------------------------3---3-------------5---5---3---3-|
E|--------------------------------------------------------|

     (Break)            .
G|-5---5--------5---5---5---0-0-|
D|---5------------5---5---------|
A|------------------------------|
E|------------------------------|

Verse 3:
'Come on Home.........Gonna treat you right........Give you candy kisses
G|--------------10----------------------------10-------------------------|
D|--------10-10---10------------------------10--10-----------------------|
A|-----------------------------------------------------------------------|
E|-----------------------------------------------------------------------|

..........Every single night
G|---10------------------------------------------5---5---5---5---|
D|-10--10--------------5-5-5-5---3---3---3---3-----5---5---5---5-|
A|---------------------------------3---3---3---3-----------------|
E|---------------------------------------------------------------|

                      (Break)
G|------------------5---5-|
D|-5---5----3---3-----5---|
A|---5---5----3---3-------|
E|------------------------|

Outro:
              (Break)   (Bass Chord)
G|-5---5---5---5---------------|
D|---5---5---5--------------10-|
A|-----------------------------|
E|--------------------------8--|
Добавлено: 08.02.2016
Другие материалы по этой песне:
  • Аккорды и текст

Страница создана 08.02.2016
http://primanota.ru/misc-unsigned-bands/tremeloes-candy-man-chords.htm
Привет, Гость.
Предлагаем пройти революционный курс по гитаре.
Подарок от PrimaNota.Ru, забирай!