PrimaNota.ru - самый крупный в мире бесплатный архив песенных текстов, аккордов, табулатур и нот


Misc Unsigned Bands - 13Ghosts - The Lonely Death Of Space Avenger - аккорды и текст

Регистрация Запомнить меня
Войти через:  Facebook Google Twitter Vk Yandex Mail.ru

Misc Unsigned Bands - 13Ghosts - The Lonely Death Of Space Avenger - аккорды и текст

Печатать
Просмотров: 65
Уроки эстрадного вокала в Санкт-Петербурге
13Ghosts - The Lonely Death Of Space Avenger
Misc Unsigned Bands
-------------------------------------------------------------------------------
                THE LONELY DEATH OF SPACE AVENGER - 13ghosts
-------------------------------------------------------------------------------
Album: The Strangest Colored Lights
Tabbed by: Jack Devlin


www.facebook.com/13ghosts
myspace.com/13ghostsband




(Verse)

C                       G                  Dsus2
Raise the bottle to the long-gone space cadet
                       Am/C
He's resting himself there
      Em           Bm    Dsus2
In the bottom of a glass boat

C                     G                    Dsus2
Sweet William, in the valley of the rocket ship
                             Am/C
When the booster's blasting off
          Em            Bm   Dsus2
Don't you listen, don't worry


(Interlude)

   Am           Em   D
e|-0--0------0--0---(2)-------------------|
B|-1--1------1--0----3-----------3--------|
G|-2--2------0--0----2-----------2--2--2--|
D|-2--2--0---2--2----0-----------0--0--0--|
A|-0--0--0---2--2-------------------------|
E|-----------0--0-------------------------|


    C             G           D      
e|--0--0-----0-------3-------(2)---------2--0--2--0----------------|
B|--1--1-----1-------0--------3----------3--3--3--3----------------|
G|--0--0-----2-------0--------2----2-----2--2--2--2----------------|
D|--2--2--2----------0-----0--0----0-----0--0--0--0----------------|
A|--3--3--3-------2----0h2-----------------------------------------|
E|----------------3------------------------------------------------|

   Am        Em     Bm       D
e|----------------------------------------|
B|-1--1--------------3--3-----3--3--3-----|
G|-2--2------0--0----4--4-----2--2--2-----|
D|-2--2--2---2--2----4--4-----0--0--0-----|
A|-0--0--0---2--2----2--2-----------------|
E|-----------0--0-------------------------|


(Verse)

C                  G              Dsus2 
All the air in the long-gone atmosphere
                               Am/C
Draws the strangest colored lights
        Em            Bm     Dsus2
And the sun, she goes darkly now

C                  G                     Dsus2 
 Oh, the starlight/sunlight, when you die
                     Am/C
Is so pretty in the sky
       Em           Bm    Dsus2
In the belly of the glass boat


(Bridge)

Am                        B7
Take good care of yourself

I wish you well
Em               Am           D
Darling William, when you're lonely
      G7            C7
Think of us back on Earth


B7
 And I will dig my hole

Em           A(major)    Dsus2
Every time I think I can hear you
    G7               C
Somewhere out in the dark



(Outro)

    (Ohhhhhhhhhhh.......)            D         G6
e|---8---8---------------------------2--0------0-------|
B|---6---6-----7-----7--7--7---------1--1--1---0-------|
G|---7---7-----5-----5--5--5---------2--2------0-------|
D|---5---5-----4-----4--4--4---------0---------0-------|
A|-------------0-----0--0--0-------------------2-------|
E|---------------------------------------------3-------|

END




************************************

| /   slide up
| \   slide down
| h   hammer-on
| p   pull-off
| ~   vibrato
| +   harmonic
| x   Mute note
| b   Bend
| pb  Pre-bend
| br  Bend release
| pbr Pre-bend release
| brb Bend release bend

************************************
Добавлено: 08.02.2016
Другие материалы по этой песне:
  • Аккорды и текст

Страница создана 08.02.2016
http://primanota.ru/misc-unsigned-bands/13ghosts-lonely-death-of-space-avenger-chords.htm
Привет, Гость.
Предлагаем пройти революционный курс по гитаре.
Подарок от PrimaNota.Ru, забирай!